Cifra Club

Dead Memories

Slipknot

Cifra: Principal
exibições 142.689
Tom: E
Afinação: B F# B E G# C#

[Intro]

Guitarra 1
C#|-----------------------------------------------------------------|
G#|-----------------------------------------------------------------|
E |-----------------------------------------------------------------|
B |-----8-----8---------8-----8---8-----8-----8---------8-----8---8-|
F#|---5-----5-----5---5-----5---------5-----5-----5---5-----5-------|
B |-5-----8-----6---5-----5-----5---5-----8-----6---5-----5-----5---|

Guitarra 1
C#|---------------------------------|
G#|---------------------------------|
E |---------------------------------|
B |-----8-----8---------8-----8---8-|
F#|---5-----5-----5---5-----5-------|
B |-5-----6-----8---5-----5-----5---|

Guitarra 2
C#|---------------------------------|
G#|---------------------------------|
E |---------------------------------|
B |---------------------------------|
F#|-----------------------------15p\|
B |-----------------------------15p\|

Guitarras 1 e 2
C#|----------------------------------|
G#|----------------------------------|
E |----------------------------------|
B |-5----\8----6---------------------|
F#|-5----\8----6-----5-5-5-5-5-5-5-5-|
B |-5----\8----6-----5-5-5-5-5-5-5-5-|
 
Guitarra 3
C#|------------------------------------------|
G#|------------------------------------------|
E |-7----10---8---7h/14--14p\12--12p\7--7p\5-|
B |-x-----x---x---x---x---x-------x--x--x--x-|
F#|-5-----8---6---5h/12--12p\10--10p\5--5p\3-|
B |------------------------------------------|

Guitarras 1 e 2
C#|-----------------------------------------------------------------|
G#|-----------------------------------------------------------------|
E |-----------------------------------------------------------------|
B |-----8-----8---------8-----8---8-----8-----8---------8-----8---8-|
F#|---5-----5-----5---5-----5---------5-----5-----5---5-----5-------|
B |-5-----8-----6---5-----5-----5---5-----8-----6---5-----5-----5---|

Guitar 3
C#|-----------------------------------|
G#|-----------------------------------|
E |-7---------------------------------|
B |-x---------------------------------|
F#|-5---------------------------------|
B |-----------------------------------|

Guitarras 1 e 2
C#|-------------------------------------------------|
G#|-------------------------------------------------|
E |-------------------------------------------------|
B |-----8-----8---------8-----8---8-----8-----8-----|
F#|---5-----5-----5---5-----5---------5-----5-----5-|
B |-5-----6-----8---5-----5-----5---5-----8-----6---|

Guitarras 1 e 2
C#|---------------------------------|
G#|---------------------------------|
E |---------------------------------|
B |---------------------------------|
F#|-5-5-5-5-5-5-5-5-5-5-5-5-5-5-5-5-|
B |-5-5-5-5-5-5-5-5-5-5-5-5-5-5-5-5-|

[Primeira Parte]

Guitarras 1 e 2
C#|-----------------------------------------------------------------------|
G#|-----------------------------------------------------------------------|
E |-----------------------------------------------------------------------|
B |-----8-----8---------8------8----8------8-----8---------8------8----8--|
F#|---5-----5-----5---5------5-----------5-----5-----5---5------5---------|
B |-5-----8-----6---5------5------5----5-----8-----6---5------5------5----|

Guitarras 1 e 2
C#|-----------------------------------------------------------------------|
G#|-----------------------------------------------------------------------|
E |-----------------------------------------------------------------------|
B |-----8-----8---8-----8------8----8------8-----8---------8------8----8--|
F#|---5-----5---------5------5-----------5-----5-----5---5------5---------|
B |-5-----6-----8---5------5------5----5-----8-----6---5------5------8----|

Guitarras 1 e 2
C#|-----------------------------------------------------------------------|
G#|-----------------------------------------------------------------------|
E |-----------------------------------------------------------------------|
B |---------------------8------8----8----------------------8------8----8--|
F#|-5-5-5-5-5-5-5-5-5-5----5-5----5----5-5-5-5-5-5-5-5-5-5----5-5----5----|
B |-5-5-5-8-8-8-6-6-5-5----5-5----5----5-5-5-8-8-8-6-6-5-5----5-5----5----|

Guitarras 1 e 2
C#|-----------------------------------------------------------------------|
G#|-----------------------------------------------------------------------|
E |-----------------------------------------------------------------------|
B |---------------------8------8----8----------------------8------8----8--|
F#|-5-5-5-5-5-5-5-5-5-5----5-5----5----5-5-5-5-5-5-5-5-5-5----5-5----5----|
B |-5-5-5-6-6-6-8-8-5-5----5-5----5----5-5-5-8-8-8-6-6-5-5----5-5----5----|

[Pré-Refrão]

Guitarra 1
C#|--------------------------------------------------------------------------|
G#|--------------------------------------------------------------------------|
E |--------------------------------------------------------------------------|
B |--------------0-------6-6-6-6-6-6-6---------------0-------6-6-6-----------| x2
F#|--------------0-0-0-0-6-6-6-6-6-6-6---------------0-0-0-0-6-6-6--/6-3-----|
B |-5-8-7--3-----0-0-0-0-6-6-6-6-6-6-6--5-8-7--3-----0-0-0-0-6-6-6-------4-0-|

Guitarra 2
C#|------------------------------------------------------------------------------|
G#|------------------------------------------------------------------------------|
E |------------------------------------------------------------------------------|
B |----------------0-------6-6-6-6-6-6-6-----------------0-------6-6-6-----------| x2
F#|----------------0-0-0-0-6-6-6-6-6-6-6-----------------0-0-0-0-6-6-6--/6-3-----|
B |-5-8--7---3-----0-0-0-0-6-6-6-6-6-6-6--5-8--7---3-----0-0-0-0-6-6-6-------4-0-|

[Refrão]

Guitarra 1
C#|-----------------------------------------------------------------|
G#|-----------------------------------------------------------------|
E |-----------------------3-3-3-3-3-----------------5-5-5-5-5-5-5-5-|
B |-5-5-5-5-5-5-5-5-1-1-1-3-3-3-3-3-0-0-0-0-0-0-0-0-5-5-5-5-5-5-5-5-|
F#|-5-5-5-5-5-5-5-5-1-1-1-1-1-1-1-1-0-0-0-0-0-0-0-0-3-3-3-3-3-3-3-3-|
B |-5-5-5-5-5-5-5-5-1-1-1-----------0-0-0-0-0-0-0-0-----------------|

Guitarra 2
C#|-------------------------------------------------------------------------------------------------|
G#|-------------------------------------------------------------------------------------------------|
E |-15-15-15\14-14-14/10-10/12-12-12/14-14-14/15-15-15-15-15\14-14-14\10-10/12-12-12/14-14-14/15-15-|
B |--x--x--x--x--x--x--x--x--x--x--x--x--x--x--x--x--x--x--x--x--x--x--x--x--x--x--x--x--x--x--x--x-|
F#|-13-13-13\12-12-12/-8--8/10-10-10/12-12-12/13-13-13-13-13\12-12-12\-8--8/10-10-10/12-12-12/13-13-|
B |-------------------------------------------------------------------------------------------------|

Guitarra 1
C#|----------------------------------------------------|
G#|----------------------------------------------------|
E |-----------------------3-3-3-3-3--------------------|
B |-5-5-5-5-5-5-5-5-1-1-1-3-3-3-3-3-3----2----1----0---|
F#|-5-5-5-5-5-5-5-5-1-1-1-1-1-1-1-1-3----2----1----0---|
B |-5-5-5-5-5-5-5-5-1-1-1-----------3----2----1----0---|

Guitarra 2
C#|-----------------------------------------------------------------------------------|
G#|-----------------------------------------------------------------------------------|
E |-15-15-15\14-14-14\10-10-10/12-12-12/14-14-14/15-15-15---14---15---15---14---------|
B |--x--x--x--x--x--x--x--x--x--x--x--x--x--x--x--x--x--x----x----x----x----x---14-14-|
F#|-13-13-13\12-12-12\-8--8--8/10-10-10/12-12-12/13-13-13---12---13---13---12----x--x-|
B |-----------------------------------------------------------------------------12-12-|

[Interlúdio]

Guitarras 1 e 2
C#|-------------------------------------------------|
G#|-------------------------------------------------|
E |-------------------------------------------------|
B |-----8-----8---------8-----8---8-----8-----8-----|
F#|---5-----5-----5---5-----5---------5-----5-----5-|
B |-5-----8-----6---5-----5-----5---5-----8-----6---|

Guitarra 1
C#|-----------------------------------|
G#|-----------------------------------|
E |-----------------------------------|
B |-----------------------------------|
F#|-5-5-5-5-5-5-5-5-5-5-5-5-5-5-------|
B |-5-5-5-5-5-5-5-5-5-5-5-5-5-5--12p\-|

Guitarra 2
C#|---------------------------------|
G#|---------------------------------|
E |---------------------------------|
B |---------------------------------|
F#|-5-5-5-5-5-5-5-5-5-5-5-5-5-5-5-5-|
B |-5-5-5-5-5-5-5-5-5-5-5-5-5-5-5-5-|

[Segunda Parte]

Guitarra 1
C#|-----------------------------------------------------------------|
G#|-----------------------------------------------------------------|
E |-----------------------------------------------------------------|
B |-----------------------------------------------------------------|
F#|-5-5-5-5-5-5-8-8-8-8-8-8-6-6-6-6-5-5-5-5-8-8-5-5-5-5-8-8-5-5-8-8-|
B |-----------------------------------------------------------------|

Guitarra 2
C#|-----------------------------------------------------------------|
G#|-----------------------------------------------------------------|
E |-----------------------------------------------------------------|
B |-----------------------------------------------------------------|
F#|-----------------------------------------------------------------|
B |-5-5-5-5-5-5-8-8-8-8-8-8-6-6-6-6-5-5-5-5-8-8-5-5-5-5-8-8-5-5-8-8-|

Guitarra 1
C#|-------------------------------------------------------------------------------------------------|
G#|-------------------------------------------------------------------------------------------------|
E |-------------------------------------------------------------------------------------------------|
B |-------------------------------------------------------------------------------------------------|
F#|-5-5-5-5-5-5-8-8-8-8-8-8-6-6-6-6-5-5-5-5-8-8-5-5-5-5-8-8-5-5-8-8-5-5-5-5-5-5-6-6-6-6-6-6-8-8-8-8-|
B |-------------------------------------------------------------------------------------------------|

Guitarra 2
C#|-------------------------------------------------------------------------------------------------|
G#|-------------------------------------------------------------------------------------------------|
E |-------------------------------------------------------------------------------------------------|
B |-------------------------------------------------------------------------------------------------|
F#|-------------------------------------------------------------------------------------------------|
B |-5-5-5-5-5-5-8-8-8-8-8-8-6-6-6-6-5-5-5-5-8-8-5-5-5-5-8-8-5-5-8-8-5-5-5-5-5-5-6-6-6-6-6-6-8-8-8-8-|
 
Guitarra 1
C#|-------------------------------------------------------------------------------------------------|
G#|-------------------------------------------------------------------------------------------------|
E |-------------------------------------------------------------------------------------------------|
B |-------------------------------------------------------------------------------------------------|
F#|-5-5-5-5-8-8-5-5-5-5-8-8-5-5-8-8-5-5-5-5-5-5-8-8-8-8-8-8-6-6-6-6-5-5-5-5-8-8-5-5-5-5-8-8-5-5-8-8-|
B |-------------------------------------------------------------------------------------------------|
  
Guitarra 2
C#|-------------------------------------------------------------------------------------------------|
G#|-------------------------------------------------------------------------------------------------|
E |-------------------------------------------------------------------------------------------------|
B |-------------------------------------------------------------------------------------------------|
F#|-------------------------------------------------------------------------------------------------|
B |-5-5-5-5-8-8-5-5-5-5-8-8-5-5-8-8-5-5-5-5-5-5-8-8-8-8-8-8-6-6-6-6-5-5-5-5-8-8-5-5-5-5-8-8-5-5-8-8-|
    
[Pré-Refrão]

Guitarra 1
C#|--------------------------------------------------------------------------|
G#|--------------------------------------------------------------------------|
E |--------------------------------------------------------------------------|
B |--------------0-------6-6-6-6-6-6-6---------------0-------6-6-6-----------| x2
F#|--------------0-0-0-0-6-6-6-6-6-6-6---------------0-0-0-0-6-6-6--/6-3-----|
B |-5-8-7--3-----0-0-0-0-6-6-6-6-6-6-6--5-8-7--3-----0-0-0-0-6-6-6-------4-0-|

Guitarra 2
C#|------------------------------------------------------------------------------|
G#|------------------------------------------------------------------------------|
E |------------------------------------------------------------------------------|
B |----------------0-------6-6-6-6-6-6-6-----------------0-------6-6-6-----------| x2
F#|----------------0-0-0-0-6-6-6-6-6-6-6-----------------0-0-0-0-6-6-6--/6-3-----|
B |-5-8--7---3-----0-0-0-0-6-6-6-6-6-6-6--5-8--7---3-----0-0-0-0-6-6-6-------4-0-|

[Refrão]

Guitarra 1
C#|-----------------------------------------------------------------|
G#|-----------------------------------------------------------------|
E |-----------------------3-3-3-3-3-----------------5-5-5-5-5-5-5-5-|
B |-5-5-5-5-5-5-5-5-1-1-1-3-3-3-3-3-0-0-0-0-0-0-0-0-5-5-5-5-5-5-5-5-|
F#|-5-5-5-5-5-5-5-5-1-1-1-1-1-1-1-1-0-0-0-0-0-0-0-0-3-3-3-3-3-3-3-3-|
B |-5-5-5-5-5-5-5-5-1-1-1-----------0-0-0-0-0-0-0-0-----------------|

Guitarra 2
C#|-------------------------------------------------------------------------------------------------|
G#|-------------------------------------------------------------------------------------------------|
E |-15-15-15\14-14-14/10-10/12-12-12/14-14-14/15-15-15-15-15\14-14-14\10-10/12-12-12/14-14-14/15-15-|
B |--x--x--x--x--x--x--x--x--x--x--x--x--x--x--x--x--x--x--x--x--x--x--x--x--x--x--x--x--x--x--x--x-|
F#|-13-13-13\12-12-12/-8--8/10-10-10/12-12-12/13-13-13-13-13\12-12-12\-8--8/10-10-10/12-12-12/13-13-|
B |-------------------------------------------------------------------------------------------------|

Guitarra 1
C#|----------------------------------------------------|
G#|----------------------------------------------------|
E |-----------------------3-3-3-3-3--------------------|
B |-5-5-5-5-5-5-5-5-1-1-1-3-3-3-3-3-3----2----1----0---|
F#|-5-5-5-5-5-5-5-5-1-1-1-1-1-1-1-1-3----2----1----0---|
B |-5-5-5-5-5-5-5-5-1-1-1-----------3----2----1----0---|

Guitarra 2
C#|-----------------------------------------------------------------------------------|
G#|-----------------------------------------------------------------------------------|
E |-15-15-15\14-14-14\10-10-10/12-12-12/14-14-14/15-15-15---14---15---15---14---------|
B |--x--x--x--x--x--x--x--x--x--x--x--x--x--x--x--x--x--x----x----x----x----x---14-14-|
F#|-13-13-13\12-12-12\-8--8--8/10-10-10/12-12-12/13-13-13---12---13---13---12----x--x-|
B |-----------------------------------------------------------------------------12-12-|

Guitarra 1
C#|-----------------------------------------------------------------|
G#|-----------------------------------------------------------------|
E |-----------------------3-3-3-3-3-----------------5-5-5-5-5-5-5-5-|
B |-5-5-5-5-5-5-5-5-1-1-1-3-3-3-3-3-0-0-0-0-0-0-0-0-5-5-5-5-5-5-5-5-|
F#|-5-5-5-5-5-5-5-5-1-1-1-1-1-1-1-1-0-0-0-0-0-0-0-0-3-3-3-3-3-3-3-3-|
B |-5-5-5-5-5-5-5-5-1-1-1-----------0-0-0-0-0-0-0-0-----------------|

Guitarra 2
C#|-------------------------------------------------------------------------------------------------|
G#|-------------------------------------------------------------------------------------------------|
E |-15-15-15\14-14-14/10-10/12-12-12/14-14-14/15-15-15-15-15\14-14-14\10-10/12-12-12/14-14-14/15-15-|
B |--x--x--x--x--x--x--x--x--x--x--x--x--x--x--x--x--x--x--x--x--x--x--x--x--x--x--x--x--x--x--x--x-|
F#|-13-13-13\12-12-12/-8--8/10-10-10/12-12-12/13-13-13-13-13\12-12-12\-8--8/10-10-10/12-12-12/13-13-|
B |-------------------------------------------------------------------------------------------------|

Guitarra 1
C#|----------------------------------------------------|
G#|----------------------------------------------------|
E |-----------------------3-3-3-3-3--------------------|
B |-5-5-5-5-5-5-5-5-1-1-1-3-3-3-3-3-3----2----1----0---|
F#|-5-5-5-5-5-5-5-5-1-1-1-1-1-1-1-1-3----2----1----0---|
B |-5-5-5-5-5-5-5-5-1-1-1-----------3----2----1----0---|

Guitarra 2
C#|-----------------------------------------------------------------------------------|
G#|-----------------------------------------------------------------------------------|
E |-15-15-15\14-14-14\10-10-10/12-12-12/14-14-14/15-15-15---14---15---15---14---------|
B |--x--x--x--x--x--x--x--x--x--x--x--x--x--x--x--x--x--x----x----x----x----x---14-14-|
F#|-13-13-13\12-12-12\-8--8--8/10-10-10/12-12-12/13-13-13---12---13---13---12----x--x-|
B |-----------------------------------------------------------------------------12-12-|

[Interlúdio]

Guitarras 1 e 2
C#|-------------------------------------------------|
G#|-------------------------------------------------|
E |-------------------------------------------------|
B |-----8-----8---------8-----8---8-----8-----8-----|
F#|---5-----5-----5---5-----5---------5-----5-------|
B |-5-----8-----6---5-----5-----5---5-----8-----6-0-|

Guitarras 1 e 2
C#|-----------------------------------------------------------------|
G#|-----------------------------------------------------------------|
E |-----------------------------------------------------------------|
B |-----------------------------------------------------------------|
F#|---5-5---5-5---5---5-5---5-5---5---5-5---5-5---5---5-5---5-5---5-|
B |-6-----6-----6---6-----6-----6---6-----6-----6---6-----6-----6---|

[Solo] 

Guitarra 1
             1__  .5     1________    1____                       
C#|-----10--------------------------13b---(13)p11-13-----11h13-11-------|
G#|--------13b--13pb--13pb--------x-------------------------------------|
E |-/13---------------------------x-------------------------------------|
B |---------------------------------------------------------------------|
F#|---------------------------------------------------------------------|
B |---------------------------------------------------------------------|

Guitarra 2
C#|----------------------------------------------------------------------------|
G#|----------------------------------------------------------------------------|
E |----------------------------------------------------------------------------|
B |----------------0-------6-6-6-6-6-6-6-----------------0-------6-6-6-6-6-6-6-|
F#|----------------0-0-0-0-6-6-6-6-6-6-6-----------------0-0-0-0-6-6-6-6-6-6-6-|
B |-5-8--7---3-----0-0-0-0-6-6-6-6-6-6-6--5-8--7---3-----0-0-0-0-6-6-6-6-6-6-6-|

Guitarra 1
C#|-/10h11h13p11p10h11p10------------------------------------------------|
G#|----------------------13p11p10h11p10p\8-------------------------------|
E |---------------------------------------10p8h10p8p7--8h10p8h10p8p7-7-7-|
B |--------------------------------------------------10-------------8----|
F#|----------------------------------------------------------------------|
B |----------------------------------------------------------------------|

Guitarra 1
C#|----------------------------|
G#|----------------------------|
E |-7h8-7h8p7-8p7-8p7-7-/12----|
B |----------------------------|
F#|----------------------------|
B |----------------------------|

Guitarra 2
C#|----------------------------------------------------------------------------|
G#|----------------------------------------------------------------------------|
E |----------------------------------------------------------------------------|
B |----------------0-------6-6-6-6-6-6-6-----------------0-------6-6-6-6-6-6-6-|
F#|----------------0-0-0-0-6-6-6-6-6-6-6-----------------0-0-0-0-6-6-6-6-6-6-6-|
B |-5-8--7---3-----0-0-0-0-6-6-6-6-6-6-6--5-8--7---3-----0-0-0-0-6-6-6-6-6-6-6-|

Guitarra 1
C#|-----------------------------------------------------------------------------------------------|
G#|-----------------------------------------------------------------------------------------------|
E |------7--5/10--\5/7--\5/8--5h/7-\5-------/17-15-15\14---\12-12---------------------------------|
B |------x--x--x---x-x---x-x--x--x--x-----------------------------12-12\10-10/15-15\12-12\10/12---|
F#|-13p\-5--3/-8--\3/5--\3/6--3h/5-\3---5p\-------------------------------------------------------|
B |-----------------------------------------------------------------------------------------------|

Guitarra 2
C#|-----------------------------------------------------------------------------|
G#|-----------------------------------------------------------------------------|
E |-----------------------------------------------------------------------------|
B |----------------0-------6-6-6-6-6-6-6-----------------0-------6-6-6----------|
F#|----------------0-0-0-0-6-6-6-6-6-6-6-----------------0-0-0-0-6-6-6--6-3-----|
B |-5-8--7---3-----0-0-0-0-6-6-6-6-6-6-6--5-8--7---3-----0-0-0-0-6-6-6------4-0-|

[Interlúdio]

Guitarra 3
C#|-----------------------------------------------------------|
G#|-10--------10-----11-----10--------10--------11------------|
E |-----------------------------------------------------------|
B |------------8------8------10--------12---------------------|
F#|-10--------------------------------------------------------|
B |-----------------------------------------------------------|

Guitar 4:
C#|-6-----5------------------5-------6------8------5---------------7----8----|
G#|---------------6\------------------------------------------8--------------|
E |------------------------------------------------------8----7--------------|
B |-------0---------------------------------0-----------------0--------------|
F#|-0------------------------------------------------------------------------|
B |-------------------8------------------------------------------------------|

Guitarra 3
C#|---------------------------|----------------------------------|
G#|-10--------10------11------|10--------10-------11-------------|
E |---------------------------|----------------------------------|
B |------------8------8-------|10--------12----------------------|
F#|-10------------------------|----------------------------------|
B |---------------------------|----------------------------------|

Guitar 4:
C#|-6------5-----------------5-------6------|8------5----------------7----8----|
G#|----------------6\-----------------------|-------------------8--------------|
E |-----------------------------------------|-------------8-----7--------------|
B |--------0--------------------------------|0------------------0--------------|
F#|-0---------------------------------------|----------------------------------|
B |-------------------8---------------------|----------------------------------|

[Piano]
C#|---------------------------------------------------------------------|
G#|-15-----16----15-----15----------16----15------15------16-----15-----|
E |---------------------------------------------------------------------|
B |---------------------------------------------------------------------|
F#|---------------------------------------------------------------------|
B |---------------------------------------------------------------------|

Guitarra 1
C#|-------------------------------|
G#|-------------------------------|
E |-------------------------------|
B |------3-----2-----1-----0------|
F#|-12p\-3-----2-----1-----0------|
B |-12p\-3-----2-----1-----0------|

Guitarra 2
C#|--------------------------------------------|
G#|--------------------------------------------|
E |------15----14----15--15------14------------|
B |-------x-----x-----x---x--------------14-14-|
F#|-12p\-13----12----13--13------12-------x--x-|
B |-12p\---------------------------------12-12-|

[Refrão]

Guitarra 1
C#|-----------------------------------------------------------------|
G#|-----------------------------------------------------------------|
E |-----------------------3-3-3-3-3-----------------5-5-5-5-5-5-5-5-|
B |-5-5-5-5-5-5-5-5-1-1-1-3-3-3-3-3-0-0-0-0-0-0-0-0-5-5-5-5-5-5-5-5-|
F#|-5-5-5-5-5-5-5-5-1-1-1-1-1-1-1-1-0-0-0-0-0-0-0-0-3-3-3-3-3-3-3-3-|
B |-5-5-5-5-5-5-5-5-1-1-1-----------0-0-0-0-0-0-0-0-----------------|

Guitarra 2
C#|-------------------------------------------------------------------------------------------------|
G#|-------------------------------------------------------------------------------------------------|
E |-15-15-15\14-14-14/10-10/12-12-12/14-14-14/15-15-15-15-15\14-14-14\10-10/12-12-12/14-14-14/15-15-|
B |--x--x--x--x--x--x--x--x--x--x--x--x--x--x--x--x--x--x--x--x--x--x--x--x--x--x--x--x--x--x--x--x-|
F#|-13-13-13\12-12-12/-8--8/10-10-10/12-12-12/13-13-13-13-13\12-12-12\-8--8/10-10-10/12-12-12/13-13-|
B |-------------------------------------------------------------------------------------------------|

Guitarra 1
C#|----------------------------------------------------|
G#|----------------------------------------------------|
E |-----------------------3-3-3-3-3--------------------|
B |-5-5-5-5-5-5-5-5-1-1-1-3-3-3-3-3-3----2----1----0---|
F#|-5-5-5-5-5-5-5-5-1-1-1-1-1-1-1-1-3----2----1----0---|
B |-5-5-5-5-5-5-5-5-1-1-1-----------3----2----1----0---|

Guitarra 2
C#|-----------------------------------------------------------------------------------|
G#|-----------------------------------------------------------------------------------|
E |-15-15-15\14-14-14\10-10-10/12-12-12/14-14-14/15-15-15---14---15---15---14---------|
B |--x--x--x--x--x--x--x--x--x--x--x--x--x--x--x--x--x--x----x----x----x----x---14-14-|
F#|-13-13-13\12-12-12\-8--8--8/10-10-10/12-12-12/13-13-13---12---13---13---12----x--x-|
B |-----------------------------------------------------------------------------12-12-|

Guitarra 1
C#|-----------------------------------------------------------------|
G#|-----------------------------------------------------------------|
E |-----------------------3-3-3-3-3-----------------5-5-5-5-5-5-5-5-|
B |-5-5-5-5-5-5-5-5-1-1-1-3-3-3-3-3-0-0-0-0-0-0-0-0-5-5-5-5-5-5-5-5-|
F#|-5-5-5-5-5-5-5-5-1-1-1-1-1-1-1-1-0-0-0-0-0-0-0-0-3-3-3-3-3-3-3-3-|
B |-5-5-5-5-5-5-5-5-1-1-1-----------0-0-0-0-0-0-0-0-----------------|

Guitarra 2
C#|-------------------------------------------------------------------------------------------------|
G#|-------------------------------------------------------------------------------------------------|
E |-15-15-15\14-14-14/10-10/12-12-12/14-14-14/15-15-15-15-15\14-14-14\10-10/12-12-12/14-14-14/15-15-|
B |--x--x--x--x--x--x--x--x--x--x--x--x--x--x--x--x--x--x--x--x--x--x--x--x--x--x--x--x--x--x--x--x-|
F#|-13-13-13\12-12-12/-8--8/10-10-10/12-12-12/13-13-13-13-13\12-12-12\-8--8/10-10-10/12-12-12/13-13-|
B |-------------------------------------------------------------------------------------------------|

Guitarra 1
C#|----------------------------------------------------|
G#|----------------------------------------------------|
E |-----------------------3-3-3-3-3--------------------|
B |-5-5-5-5-5-5-5-5-1-1-1-3-3-3-3-3-3----2----1----0---|
F#|-5-5-5-5-5-5-5-5-1-1-1-1-1-1-1-1-3----2----1----0---|
B |-5-5-5-5-5-5-5-5-1-1-1-----------3----2----1----0---|

Guitarra 2
C#|-----------------------------------------------------------------------------------|
G#|-----------------------------------------------------------------------------------|
E |-15-15-15\14-14-14\10-10-10/12-12-12/14-14-14/15-15-15---14---15---15---14---------|
B |--x--x--x--x--x--x--x--x--x--x--x--x--x--x--x--x--x--x----x----x----x----x---14-14-|
F#|-13-13-13\12-12-12\-8--8--8/10-10-10/12-12-12/13-13-13---12---13---13---12----x--x-|
B |-----------------------------------------------------------------------------12-12-|

[Final]

[Solo]

Guitarra 3
                                                          1___                        1___
C#|-------------------------------------------------------------------------------------------|
G#|-15h16p15p13-15------13-15-15h16p15p13-15------13-15-16b--(16)-16p15-15p13\11-13-13b--(13)-|
E |-------------------------------------------------------------------------------------------|
B |-------------------------------------------------------------------------------------------|
F#|-------------------------------------------------------------------------------------------|
B |-------------------------------------------------------------------------------------------|

Guitarra 1
C#|-----------------------------------------------------------------|
G#|-----------------------------------------------------------------|
E |-----------------------3-3-3-3-3-----------------5-5-5-5-5-5-5-5-|
B |-5-5-5-5-5-5-5-5-1-1-1-3-3-3-3-3-0-0-0-0-0-0-0-0-5-5-5-5-5-5-5-5-|
F#|-5-5-5-5-5-5-5-5-1-1-1-1-1-1-1-1-0-0-0-0-0-0-0-0-3-3-3-3-3-3-3-3-|
B |-5-5-5-5-5-5-5-5-1-1-1-----------0-0-0-0-0-0-0-0-----------------|

Guitarra 2
C#|-------------------------------------------------------------------------------------------------|
G#|-------------------------------------------------------------------------------------------------|
E |-15-15-15\14-14-14/10-10/12-12-12/14-14-14/15-15-15-15-15\14-14-14\10-10/12-12-12/14-14-14/15-15-|
B |--x--x--x--x--x--x--x--x--x--x--x--x--x--x--x--x--x--x--x--x--x--x--x--x--x--x--x--x--x--x--x--x-|
F#|-13-13-13\12-12-12/-8--8/10-10-10/12-12-12/13-13-13-13-13\12-12-12\-8--8/10-10-10/12-12-12/13-13-|
B |-------------------------------------------------------------------------------------------------|

Guitarra 3
C#|-------------------------------------------------------------------------|
G#|-11h13-11h13p11p\10-11h13-10h/11-10-------13p11p10----11h13-11-10----11\-|
E |------------------------------------12-------------12--------------------|
B |-------------------------------------------------------------------------|
F#|-------------------------------------------------------------------------|
B |-------------------------------------------------------------------------|

Guitarra 1
C#|---------------------------------|
G#|---------------------------------|
E |-----------------------3-3-3-3-3-|
B |-5-5-5-5-5-5-5-5-1-1-1-3-3-3-3-3-|
F#|-5-5-5-5-5-5-5-5-1-1-1-1-1-1-1-1-|
B |-5-5-5-5-5-5-5-5-1-1-1-----------|

Guitarra 2
B |----------------------------------------------------|
F#|----------------------------------------------------|
D|-15-15-15\14-14-14\10-10-10/12-12-12/14-14-14/15-15-|
A|--x--x--x--x--x--x--x--x--x--x--x--x--x--x--x--x--x-|
E |-13-13-13\12-12-12\-8--8--8/10-10-10/12-12-12/13-13-|
B |----------------------------------------------------|

Guitarra 3
C#|--------------------------------------------------------------------------|
G#|--------------------------------------------------------------------------|
E |-10-----9-----------------------------------------------------------------|
B |-----------------13------12----------------------(12)-----------x12-------|
F#|--------------------------------------------------------------[5h8p5]-8p\-|
B |--------------------------------------------------------------------------|

Guitarra 1
C#|---------------------------------------------------------------|
G#|---------------------------------------------------------------|
E |---------------------------------------------------------------|
B |-3-----2-----1-----0-------------------------(0)---------------|
F#|-3-----2-----1-----0-------------------------(0)---------------|
B |-3-----2-----1-----0-------------------------(0)---------------|

Guitarra 2
C#|----------------------------------------------------------------|
G#|----------------------------------------------------------------|
E |-15-----14-----15-----15-----14-------------(14)----------------|
B |--x------x------x------x------x---------------------------------|
F#|-13-----12-----13-----13-----12-------------(12)----------------|
B |----------------------------------------------------------------|
Acordes para:
    Composição: SlipknotColaboração e revisão:

    0 comentários

      mostrar mais comentários

      Conseguiu tocar?

      41tocaram0ainda não

      Grave um vídeo tocando Dead Memories e mande pra gente!

      00:00 / 00:00
      outros vídeos desta música
      repetirqualidadeautomática
      Outro vídeos desta música
        00:00 / 00:00
        automática
        OK