Enviar cifraEntrar

Dead Memories

Slipknot

Cifra: Principal
exibições 140.830
Tom: F
Afinação: (low to high) b f# b e g# c#

intro:


--------------------------------------------------------------------------------------------------------
--------------------------------------------------------------------------------------------------------
--------------------------------------------------------------------------------------------------------
-----8-----8---------8-----8---8-----8-----8---------8-----8---8-----8-----8---------8-----8---8--------
---5-----5-----5---5-----5---------5-----5-----5---5-----5---------5-----5-----5---5-----5--------------
-5-----8-----6---5-----5-----5---5-----8-----6---5-----5-----5---5-----6-----8---5-----5-----5----------


-----------------------------------------------------------
-----------------------------------------------------------
-------7/14-14\12-12\7-7\5/7~------------------------------
-5-8-6-x--x--x--x--x-x-x-x-x-------------------------------
-5-8-6-5/12-12\10-10\5-5\3/5~------------------------------
-5-8-6-----------------------------------------------------


-----------------------------------------------------------
-----------------------------------------------------------
-----------------------------------------------------------
-----8-----8---------8-----8---8-----8-----8---------------
---5-----5-----5---5-----5---------5-----5-----5-----------
-5-----6-----8---5-----5-----5---5-----8-----6-------------



p.m.

-----------------------------------------------
-----------------------------------------------
-----------------------------------------------
-5-5-5-5-5-5-5-5-5-5-5-5-5-5-5-5---------------
-5-5-5-5-5-5-5-5-5-5-5-5-5-5-5-5---------------
-5-5-5-5-5-5-5-5-5-5-5-5-5-5-5-5---------------


Verso 1


----------------------------------------------------------------| -------------------------------------   
----------------------------------------------------------------| -------------------------------------   
----------------------------------------------------------------| -------------------------------------               
-----8-----8--------*8----*8--*8-----8-----8--------*8----*8--*8| -----8-----8--------*8----*8--*8-----
---5-----5-----5-------------------5-----5-----5----------------| ---5-----5-----5---------------------
-5-----8-----6---5-5---5-5---5---5-----8-----6---5-5---5-5---5--| -5-----6-----8---5-5---5-5---5------- 


--------------------------------------
--------------------------------------
--------------------------------------
-----8-----8--------*8----*8--*8------
---5-----5-----5----------------------
-5-----8-----6---5-5---5-5---5-------- 


---------------------------------------
 --------------------------------------
 --------------------------------------
 ----------------------*8---*8--*8----- X2
 --------------------------------------
 ---5-5-5-8-8-8-6-6-5-5--5-5---5-------


-----------------------------------------------------------------
-----------------------------------------------------------------
-----------------------------------------------------------------
--------------------*8---*8--*8--------------------*8---*8--*8---
-----------------------------------------------------------------
-5-5-5-6-6-6-8-8-5-5--5-5---5---5-5-5-8-8-8-6-6-5-5--5-5---5-----

   ........ . .  . .   .   . . . . . . . . . .    . .   .



--------------------------------------------------------------------------------------------------------
--------------------------------------------------------------------------------------------------------
--------------------------------------------------------------------------------------------------------
----------0-0-0-0-6-6-6-6-6-6-6----------0-0-0-0-6-6-6--------------0-0-0-0-6-6-6-6-6-6-6---------------
----------0-0-0-0-6-6-6-6-6-6-6----------0-0-0-0-6-6-6-6-3----------0-0-0-0-6-6-6-6-6-6-6---------------
-5\1-1/3~-0-0-0-0-6-6-6-6-6-6-6-5\1-1/3~-0-0-0-0-6-6-6-----5\1-1/3~-0-0-0-0-6-6-6-6-6-6-6-5\1-1/3~------


-----------------------------------
-----------------------------------
-----------------------------------
----------0-0-0-0-6-6-6------------
----------0-0-0-0-6-6-6-6-3--------
-5\1-1/3~-0-0-0-0-6-6-6-----5------



Riff:

--------------------------------------------------------------------------------------------
--------------------------------------------------------------------------------------------
--------------------------------------------------------------------------------------------
-8-8-8-7-7-7--------------------------------------------------13-13-13-12-12-12-------------
-x-x-x-x-x-x-8-8-10-10-10-8-8-8-10-10-13-13-13-12-12-12-12-12--x--x--x--x--x--x-12-12-------
-5-5-5-5-5-5-5-5-8--8--8--8-8-8-8--8--0--0--0--0--0--0--12-12-10-10-10-10-10-10-10-10-------


-----------------------------------------------
-----------------------------------------------
-----------------------------------------------
-8-8-8-7-7-7-----------------------------------
-x-x-x-x-x-x-8-8-10-10-10-8-8-8-10-10----------
-5-5-5-5-5-5-5-5-8--8--8--8-8-8-8--8-----------


Interlude:


---------------------------------------
---------------------------------------
-----------------------------7-7-------
-----7-7-7-7-8-8-----7-7-7-7-----------
-8-8-------------6-6-------------------
---------------------------------------


----------------------------------------------------
----------------------------------------------------
----------------------------------------------------
-----8-----8---------8-----8---8-----8-----8--------
---5-----5-----5---5-----5---------5-----5-----5----
-5-----8-----6---5-----5-----5---5-----8-----6------


p.m.


----------------------------------------------------
----------------------------------------------------
----------------------------------------------------
-5-5-5-5-5-5-5-5-5-5-5-5-5-5-5-5--------------------
-5-5-5-5-5-5-5-5-5-5-5-5-5-5-5-5--------------------
-5-5-5-5-5-5-5-5-5-5-5-5-5-5-5-5-5/15-15\5----------


. . . . . . . . . . . . . . . .


-----------------------------------------------------------------
-----------------------------------------------------------------
-----------------------------------------------------------------
-----------------------------------------------------------------X2
-5-5-5-5-5-5-8-8-8-8-8-8-6-6-6-6-5-5-5-5-8-8-5-5-5-5-8-8-5-5-8-8-
-----------------------------------------------------------------


----------------------------------------------------------------- 
-----------------------------------------------------------------
-----------------------------------------------------------------
-----------------------------------------------------------------
-5-5-5-5-5-5-6-6-6-6-6-6-8-8-8-8-5-5-5-5-8-8-5-5-5-5-8-8-5-5-8-8-
-----------------------------------------------------------------


-----------------------------------------------------------------
-----------------------------------------------------------------
-----------------------------------------------------------------
-----------------------------------------------------------------
-5-5-5-5-5-5-8-8-8-8-8-8-6-6-6-6-5-5-5-5-8-8-5-5-5-5-8-8-5-5-8-8-
----------------------------------------------------------------- 


--------------------------------------------------------------------------------------------------------
--------------------------------------------------------------------------------------------------------
--------------------------------------------------------------------------------------------------------
----------0-0-0-0-6-6-6-6-6-6-6----------0-0-0-0-6-6-6--------------0-0-0-0-6-6-6-6-6-6-6---------------
----------0-0-0-0-6-6-6-6-6-6-6----------0-0-0-0-6-6-6-6-3----------0-0-0-0-6-6-6-6-6-6-6---------------
-5\1-1/3~-0-0-0-0-6-6-6-6-6-6-6-5\1-1/3~-0-0-0-0-6-6-6-----5\1-1/3~-0-0-0-0-6-6-6-6-6-6-6-5\1-1/3~------


-----------------------------------
-----------------------------------
-----------------------------------
----------0-0-0-0-6-6-6------------
----------0-0-0-0-6-6-6-6-3--------
-5\1-1/3~-0-0-0-0-6-6-6-----5------


Riff: (2x)


--------------------------------------------------------------------------------------------
--------------------------------------------------------------------------------------------
--------------------------------------------------------------------------------------------
-8-8-8-7-7-7--------------------------------------------------13-13-13-12-12-12-------------
-x-x-x-x-x-x-8-8-10-10-10-8-8-8-10-10-13-13-13-12-12-12-12-12--x--x--x--x--x--x-12-12-------
-5-5-5-5-5-5-5-5-8--8--8--8-8-8-8--8--0--0--0--0--0--0--12-12-10-10-10-10-10-10-10-10-------


-----------------------------------------------
-----------------------------------------------
-----------------------------------------------
-8-8-8-7-7-7-----------------------------------
-x-x-x-x-x-x-8-8-10-10-10-8-8-8-10-10----------
-5-5-5-5-5-5-5-5-8--8--8--8-8-8-8--8-----------


interlude:


---------------------------------------
---------------------------------------
-----------------------------7-7-------
-----7-7-7-7-8-8-----7-7-7-7-----------
-8-8-------------6-6-------------------
---------------------------------------


---------------------------------------------------
---------------------------------------------------
---------------------------------------------------
-----8-----8---------8-----8---8-----8-----8-------
---5-----5-----5---5-----5---------5-----5-----5---
-5-----8-----6---5-----5-----5---5-----8-----6-----


----------------------------------------------------------------------------
----------------------------------------------------------------------------
----------------------------------------------------------------------------
----------------------------------------------------------------------------
---5-5---5-5---5---5-5---5-5---5---5-5---5-5---5---5-5---5-5---5------------
-6-----6-----6---6-----6-----6---6-----6-----6---6-----6-----6--------------


Solo:


------10---------11-13b-11-11h12h13~-13p12h13p12~---------
---------13b-13~------------------------------------------
-5/12-----------------------------------------------------
----------------------------------------------------------
----------------------------------------------------------
----------------------------------------------------------


--------------10h11h13/15-15\13-----------------------------------------------------------
-10h11h13p11p-------------------13-11-10--------------------------------------------------
-----------------------------------------9h12p-7h8h10-7/10-10\7-7h8h10p8p-7/12~-----------
------------------------------------------------------------------------------------------
------------------------------------------------------------------------------------------
------------------------------------------------------------------------------------------


-----------------------------------
-----------------------------------
-7\5-5/10-5/7-5/8-5/7\5------------
-x-x-x-x--x-x-x-x-x-x-x------------
-5\3-3/8--3/5-3/6-3/5\3------------
-----------------------------------


-8-8-6-6-5-5-3-3-------------------------
-----------------------------------------
-----------------7-7-5-5/10-10-7-5-------
-----------------------------------------
-----------------------------------------
-----------------------------------------


Breakdown (With Delay)


----------------------------------------------------------------------------
---6-----11-------------11----6-----11-------------11----6-----11-----------
----------------10-------------------------10-------------------------------
-5-----8------0------10-----5-----8------0------10-----5-----8--------------
----------------------------------------------------------------------------
----------------------------------------------------------------------------


interlude:


-------------------------------------
-------------------------------------
-----------------------------7-7----
-----7-7-7-7-8-8-----7-7-7-7---------
-8-8-------------6-6-----------------
-------------------------------------


Riff:


----------------------------------------------------------------------------
-10-10-10-------------10-10-10-11-11---10-10-10-------------10-10-10-11-11--
----------10-10---------------------------------10-10-----------------------
----------------8-8-8---------------------------------10-10-----------------
----------------------------------------------------------------------------
----------------------------------------------------------------------------


-------------------------------------------
-10-10-10-------------10-10-10-11-11-------
----------10-10----------------------------
----------------8-8-8----------------------
-------------------------------------------
-------------------------------------------


-------------------------------------------
-------------------------------------------
-----------------------------7-7-----------
-----7-7-7-7-8-8-----7-7-7-7---------------
-8-8-------------6-6-----------------------
-------------------------------------------


----------------------------------------------------------------------------
-10-10-10-------------10-10-10-11-11---10-10-10-------------10-10-10-11-11--
----------10-10---------------------------------10-10-----------------------
----------------8-8-8---------------------------------10-10-----------------
----------------------------------------------------------------------------
----------------------------------------------------------------------------


-------------------------------------------
-10-10-10-------------10-10-10-11-11-------
----------10-10----------------------------
----------------8-8-8----------------------
-------------------------------------------
-------------------------------------------


------------------------------------------
------------------------------------------
-----------------------------7-7----------
-----7-7-7-7-8-8-----7-7-7-7--------------
-8-8-------------6-6----------------------
------------------------------------------



Solo final: (a partir da 2ª repetição do refrão)


-10h11p10p8-10~-8-10--10h11p10p8-10~-8-10--8/12-12/11-11-10-10-8-6-8-6/8-8/6-6h8-6h8p-5-6-8-6-5-------
-------------------------------------------------------------------------------------------------8----
------------------------------------------------------------------------------------------------------
------------------------------------------------------------------------------------------------------
------------------------------------------------------------------------------------------------------
------------------------------------------------------------------------------------------------------


-5h6p-6/8-8/6-5-5h6p--------------------------
---------------------6------------------------
-----------------------7-10-9~-8-7~~----------
----------------------------------------------
----------------------------------------------
----------------------------------------------
  • 1
  • 2
  • 3
  • 4
  • 5
  • 6
  • 7
  • 8
  • 9
  • 10
  • 11
  • 12
    Acordes para:
      Composição: SlipknotColaboração e revisão:

      0 comentários

        mostrar mais comentários

        Conseguiu tocar?

        41tocaram0ainda não

        Grave um vídeo tocando Dead Memories e mande pra gente!

        00:00 / 00:00
        outros vídeos desta música
        repetirqualidadeautomática
        • automática
        Outro vídeos desta música
          00:00 / 00:00
          automática
          • automática
          1 versão de Tab de baixoexibiçõescontribuições
          1 versão de Guitar Proformatodownloadscontribuição
          fecharplay/pause subir/descer velocidade
            Acordes para:violão e guitarra
            acordes
            fechar
            OK