Cifra Club

Despise

Slipknot

Tab de baixo: Principal
exibições 152
  Wx4                          (4x)                    8x)
|------------||-------------------||-||-------------------||
|------------||o-----------------o||-||o-----------------o||
|------------||o-----------------o||-||o-----------------o||
|------------||--3-3-1-0-0-0-3-1--||-||--3-3-1-0-0-0-3-1--||

    E E E E E E E E 16x     E E E E E E E E 16x
||-------------------||-||-------------------||
||o-----------------o||-||o-----------------o||
||o-----------------o||-||o-----------------o||
||--3-3-1-0-0-0-3-1--||-||--3-3-1-0-0-0-3-1--||

      Q.   E Q.   E   Q  E E E E E E   4x
|-||----------------|------------------||
|-||o---------------|-----------------o||
|-||o-3----4-3----4-|-----------------o||
|-||----------------|-0--8-8-0-4-4-4---||

    E E E E E Q  E   E E Q.   E E E  4x     E E E E E E E E 16x
||-----------------|-----------------||-||-------------------||
||o----------------|----------------o||-||o-----------------o||
||o----------------|----------------o||-||o-----------------o||
||--4-4-4-4-4-4--0-|-0-0-7----7-7-7--||-||--3-3-1-0-0-0-3-1--||

  Wx4            E E E E E E E E 16x     Q.   E Q.   E   Q  E E E E E E   4x
|------------||-------------------||-||----------------|------------------||
|------------||o-----------------o||-||o---------------|-----------------o||
|------------||o-----------------o||-||o-3----4-3----4-|-----------------o||
|------------||--1-3-0-0-1-3-0-0--||-||----------------|-0--8-8-0-4-4-4---||

    E E E E E Q  E   E E Q.   E E E  8x     E Q  E E Q  E   E Q  E E E E E 12x
||-----------------|-----------------||-||----------------|-----------------||
||o----------------|----------------o||-||o---------------|----------------o||
||o----------------|----------------o||-||o---------------|----------------o||
||--4-4-4-4-4-4--0-|-0-0-7----7-7-7--||-||--3-1--0-3-1--0-|-3-1--0-3-1-3-1--||
Composição: indisponívelColaboração e revisão:
  • Lucas Lago

0 comentários

    mostrar mais comentários

    Conseguiu tocar?

    0tocaram0ainda não

    Grave um vídeo tocando Despise e mande pra gente!

    00:00 / 00:00
    outros vídeos desta música
    repetirqualidadeautomática
    Outro vídeos desta música
      00:00 / 00:00
      automática
      OK