Cifra Club

Don't Get Close

Slipknot

Cifra: Principal
exibições 4.533
Tom: F#
Key:
Tuning= Dropped B(low to high) B,F#,B,E,G#,C#
.= Palm Mute
p= Pull Off
/= Slide Towards Body
Tr=Trill
*=Pinched Harmonic

only got intro sort of.

Slipknot- Don\'t Get Close

Riff A
|---------------------------|
|---------------------------|
|---------------------------|
|---------------------------|   X2
|---------------------------|
|-1-1p0--1-1p0-1/5-0-0--0-0-|
  . . .  . .   .   . .  . .

Riff B
|------------------------------------------|
|------------------------------------------|
|------------------------------------------|
|---------------0-0-0-5-6-0-0-0-10-9-12-12-|
|---------------0-0-0-5-6-0-0-0-10-9-12-12-|
|-1-1p0--1-1p0--0-0-0-5-6-0-0-0-10-9-12-12-|
  . . .  . . .  . . .     . . .

Riff C
|----------------------------------------------------|
|----------------------------------------------------|
|----------------------------------------------------|
|-1-0-0-1-0--1-0-1--0-0-0-5-6-0-0-0-10-9-12-12-|
|-1-0-0-1-0--1-0-1--0-0-0-5-6-0-0-0-10-9-12-12-|
|-1-0-0-1-0--1-0-1--0-0-0-5-6-0-0-0-10-9-12-12-|
                    . . .     . . .

Riff A X 6 (the last two sort of put Riff b with it Sort of...)

Riff D
|----------------------|
|----------------------|
|----------------------|
|----------------------|
|----------------------|
|-7TR-10TR-8TR-7TR-8TR-|

Riff E
|------------------------|
|------------------------|
|------------------------|
|-10/11-0-5-4-3/8--1-----|
|-10/11-0-5-4-3/8--1--3*-|
|-10/11-0-5-4-3/8--1-----|

Riff F Dunno right now
|----------------------|
|----------------------|
|----------------------|
|----------------------|
|----------------------|
|----------------------|

|-----------------------------------|
|-----------------------------------|
|-----------------------------------|
|--18--15--23--20--18--15-----------|
|--------------------------16--13---|
|-----------------------------------|

(Solo) don\'t know it lol

|-------------------------------|-----------------|
|-------------------------------|-----------------|
|-------------------------------|-----------------|
|-18--15--23--20--18--15--------|--------14--11---|
|------------------------16--13-|-15--12----------|
|-------------------------------|-----------------|
Acordes para:
    Colaboração e revisão:
    • Ronaldo Moura

    0 comentários

      mostrar mais comentários

      Conseguiu tocar?

      1tocaram0ainda não

      Grave um vídeo tocando Don't Get Close e mande pra gente!

      00:00 / 00:00
      outros vídeos desta música
      repetirqualidadeautomática
      Outro vídeos desta música
        00:00 / 00:00
        automática
        OK