Enviar cifraEntrar

Duality

Slipknot

Cifra: Principal
exibições 374.349
Tom: B
Afinação: B  Gb  B  E  Ab  Db

Introdução:

(I push my fingers into my)


E|----------------------------------------------------|
B|----------------------------------------------------|
G|----------------------------------------------------|
D|----------------------------------------------------|
A|----------------------------------------------------|
E|-0-0-0-0-0-0-0-0-0-0-0-0-0-0-0-1/3------------------|


E|----------------------------------------------------|
B|----------------------------------------------------|
G|----------------------------------------------------|
D|----------------------------------------------------|
A|----------------------------------------------------|
E|-3-3-3-3-3-3-3-6\1-1-1-1-1-1-1-0--------------------|


E|----------------------------------------------------|
B|----------------------------------------------------|
G|----------------------------------------------------|
D|----------------------------------------------------|
A|----------------------------------------------------|
E|-0-0-0-0-0-0-0-0-0-0-0-0-0-0-0-1/3------------------|


E|----------------------------------------------------|
B|----------------------------------------------------|
G|----------------------------------------------------|
D|----------------------------------------------------|
A|----------------------------------------------------|
E|-3-3-3-3-3-3-3-6\1-1--------------------------------|


  D5
Eyes
         F5
It's the only thing
       Ab5  Eb5         D5
That slow__ly stops the    ache
          F5
But it's made of all
      Ab5  Eb5
The things I have to


E|----------------------------------------------------|
B|----------------------------------------------------|
G|----------------------------------------------------|
D|----------------------------------------------------|
A|-0-0-0-0-0-0-0-0-0-0-0-0-0-0-0-1/3------------------|
E|-0-0-0-0-0-0-0-0-0-0-0-0-0-0-0-1/3------------------|


E|----------------------------------------------------|
B|----------------------------------------------------|
G|----------------------------------------------------|
D|----------------------------------------------------|
A|-3-3-3-3-3-3-3-6\1-1-1-1-1-1/3-1-0------------------|
E|-3-3-3-3-3-3-3-6\1-1-1-1-1-1/3-1-0------------------|


E|----------------------------------------------------|
B|----------------------------------------------------|
G|----------------------------------------------------|
D|----------------------------------------------------|
A|---0-0-0-0-0-0-0-0-0-0-0-0-0-0-1/3------------------|
E|---0-0-0-0-0-0-0-0-0-0-0-0-0-0-1/3------------------|


E|----------------------------------------------------|
B|----------------------------------------------------|
G|----------------------------------------------------|
D|----------------------------------------------------|
A|-3-3-3-3-3-3-3-6\-1-1-1-1-1-x\----------------------|
E|-3-3-3-3-3-3-3-6\-1-1-1-1-1-x\----------------------|


 D5
Take
          F5
Jesus it never ends
    Ab5  Eb5        D5
It pushs its way inside
        F5          Ab5  Eb5
If the pain goes on

(Riff 1)

                         P.M    H.A

E|----------------------------------------------------|
B|----------------------------------------------------|
G|----------------------------------------------------|
D|----------------------------------------------------|
A|-0-0-0--0-0---0-0-0--0-1-0-3--3b~-------------------|
E|-0-0-0--0-0---0-0-0--0-1-0-3------------------------|

                         P.M     H.A

E|----------------------------------------------------|
B|----------------------------------------------------|
G|----------------------------------------------------|
D|----------------------------------------------------|
A|-0-0-0--0-0---0-0-0--0-1-0-6\-----------------------|
E|-0-0-0--0-0---0-0-0--0-1-0-6\--3b~------------------|



Primeira Parte:

(Riff da Primeira Parte)

   P.M.  .  .  . . .  .  .  .  . . . . . .

E|----------------------------------------------------|
B|----------------------------------------------------|
G|----------------------------------------------------|
D|----------------------------------------------------|
A|-12-12-12-12----------------------------------------|
E|-------------7-7-10-10-10-10-5-5-5-7-7-7------------|

   P.M . . . . . . . . . . . . . .

E|----------------------------------------------------|
B|----------------------------------------------------|
G|----------------------------------------------------|
D|----------------------------------------------------|
A|----------------------------------------------------|
E|-3-3-3-5-5-5-1-1-1-1-0-0-0-0-0-0--------------------|


I have screamed until my veins collapsed
I waited as my time's elapsed
Now all I do is live with so much fate

I've wished for this, I've bitched at that
I've left behind this little fact
You cannot kill what you did not create

(Variação da Primeira Parte)


E|----------------------------------------------------|
B|----------------------------------------------------|
G|----------------------------------------------------|
D|----------------------------------------------------|
A|-12-12-12-12-7-7-8-8-8-8----------------------------|
E|-------------------------9-9-9-10-10-10-------------|


E|----------------------------------------------------|
B|----------------------------------------------------|
G|----------------------------------------------------|
D|----------------------------------------------------|
A|-8-8-8-8-10-10-8-8-8-8-7-7-7-7-7-7------------------|
E|----------------------------------------------------|


I've gotta say what I've gotta say
And then I swear I'll go away
But I can't promise you'll enjoy the noise

I guess I'll save the best for last
My future seems like one big past
You're left with me 'cause you left me no choice

(Riff 2)

   P.M  . .  . . .  . .  . . .  . .  . . .

E|----------------------------------------------------|
B|----------------------------------------------------|
G|----------------------------------------------------|
D|----------------------------------------------------|
A|-3-3--3-3--3-3-3--3-3--3-3-3--3-3--3-2-2------------|
E|-3-3--3-3--3-3-3--3-3--3-3-3--3-3--3-2-2-1b~--------|


I push my fingers into my


Refrão:

D5
Eyes
         F5
It's the only thing
       Ab5  Eb5         D5
That slow__ly stops the    ache
        F5
If the pain goes on
     Ab5  Eb5          D5
I'm not  gonna make it

(Riff 3)

   P.M.  .  .  . . .  .  .  .  . . . . . .

E|----------------------------------------------------|
B|----------------------------------------------------|
G|----------------------------------------------------|
D|----------------------------------------------------|
A|-12-12-12-12----------------------------------------|
E|-------------7-7-10-10-10-10-5-5-5-7-7-7------------|

   P.M . . . . . . . . . . . . . .

E|----------------------------------------------------|
B|----------------------------------------------------|
G|----------------------------------------------------|
D|----------------------------------------------------|
A|----------------------------------------------------|
E|-3-3-3-5-5-5-1-1-1-1-0-0-0-0-0-0--------------------|

   P.M.  .  .  . . .  .  .  .  . . . . . .

E|----------------------------------------------------|
B|----------------------------------------------------|
G|----------------------------------------------------|
D|------------------------------------------3--5--1--0|
A|-12-12-12-12------------------------------3--5--1--0|
E|-------------7-7-10-10-10-10-5-5-5-7-7-7--3--5--1--0|



Segunda Parte:

(Riff da Segunda Parte)

Put me back together
Or separate the skin from bone
Leave me all the pieces
Then you can leave me alone

(Variação da Segunda Parte)

Tell me the reality
Is better than the dream
But I found out the hard way
Nothing is what it seems

(Riff 2)

I push my fingers into my


Segundo Refrão:

D5
Eyes
         F5
It's the only thing
       Ab5  Eb5         D5
That slow__ly stops the    ache
          F5
But it's made of all
      Ab5  Eb5        D5
The things I have to take
          F5
Jesus it never ends
    Ab5  Eb5        D5
It pushs its way inside
        F5
If the pain goes on
     Ab5  Eb5          D5
I'm not  gonna make it

(Riff do Segundo Refrão)


E|----------------------------------------------------|
B|----------------------------------------------------|
G|-7-7/10--10/12--12/14--14/15-14~--------------------|
D|----------------------------------------------------|
A|-5-5/8---8-/10--10/12--12/13-12~--------------------|
E|----------------------------------------------------|



Terceira Parte:

                         P.M    H.A

E|----------------------------------------------------|
B|----------------------------------------------------|
G|----------------------------------------------------|
D|----------------------------------------------------|
A|-0-0-0--0-0---0-0-0--0-1-0-3--3b~-------------------|
E|-0-0-0--0-0---0-0-0--0-1-0-3------------------------|

                         P.M     H.A

E|----------------------------------------------------|
B|----------------------------------------------------|
G|----------------------------------------------------|
D|----------------------------------------------------|
A|-0-0-0--0-0---0-0-0--0-1-0-6\-----------------------|
E|-0-0-0--0-0---0-0-0--0-1-0-6\--3b~------------------|

                         P.M    H.A

E|----------------------------------------------------|
B|----------------------------------------------------|
G|----------------------------------------------------|
D|----------------------------------------------------|
A|-0-0-0--0-0---0-0-0--0-1-0-3--3b~-------------------|
E|-0-0-0--0-0---0-0-0--0-1-0-3------------------------|

                         P.M . . . . . .

E|----------------------------------------------------|
B|----------------------------------------------------|
G|----------------------------------------------------|
D|----------------------------------------------------|
A|-0-0-0--0-0---0-0-0--0-1-0-6-6-6-3-3-3--------------|
E|-0-0-0--0-0---0-0-0--0-1-0-6-6-6-3-3-3--------------|


All I've got
All I've got is insane
All I've got
All I've got is insane

                         P.M    H.A

E|----------------------------------------------------|
B|----------------------------------------------------|
G|----------------------------------------------------|
D|----------------------------------------------------|
A|-1-1-1--1-1---1-1-1--1-3-1-3--3b~-------------------|
E|-1-1-1--1-1---1-1-1--1-3-1-3------------------------|

                         P.M

E|----------------------------------------------------|
B|----------------------------------------------------|
G|----------------------------------------------------|
D|----------------------------------------------------|
A|-1-1-1--1-1---1-1-1--1-3-1-6\-0---------------------|
E|-1-1-1--1-1---1-1-1--1-3-1-6\-0---------------------|

                         P.M    H.A

E|----------------------------------------------------|
B|----------------------------------------------------|
G|----------------------------------------------------|
D|----------------------------------------------------|
A|-1-1-1--1-1---1-1-1--1-3-1-3--3b~-------------------|
E|-1-1-1--1-1---1-1-1--1-3-1-3------------------------|

                         P.M

E|----------------------------------------------------|
B|----------------------------------------------------|
G|----------------------------------------------------|
D|----------------------------------------------------|
A|-1-1-1--1-1---1-1-1--1-3-1-6\-0---------------------|
E|-1-1-1--1-1---1-1-1--1-3-1-6\-0---------------------|


All I've got
All I've got is insane
All I've got
All I've got is insane
All I've got
All I've got is insane
All I've got
All I've got is insane

(Riff 4)

   P.M  . .  . . .  . .  . . .  . .  . . . . .

E|----------------------------------------------------|
B|----------------------------------------------------|
G|----------------------------------------------------|
D|----------------------------------------------------|
A|-3-3--3-3--3-3-3--3-3--3-3-3--3-3--3-2-2-1-1--------|
E|-3-3--3-3--3-3-3--3-3--3-3-3--3-3--3-2-2-1-1--------|

   P.M . . . . . . . . . . . . . . . . . . . . . .

E|----------------------------------------------------|
B|----------------------------------------------------|
G|----------------------------------------------------|
D|----------------------------------------------------|
A|----------------------------------------------------|
E|-0-0-0-3-3-3-2-2-0-0-0-3-3-3-7-7-12-12-12-8-8-8-----|

   P.M.  .  . . . . . .

E|----------------------------------------------------|
B|----------------------------------------------------|
G|----------------------------------------------------|
D|----------------------------------------------------|
A|----------------------------------------------------|
E|-10-10-10-7-7-7-5-5-7-------------------------------|


I push my fingers into my


Terceiro Refrão:

D5
Eyes
         F5
It's the only thing
       Ab5  Eb5         D5
That slow__ly stops the    ache
          F5
But it's made of all
      Ab5  Eb5        D5
The things I have to take
          F5
Jesus it never ends
    Ab5  Eb5        D5
It pushs its way inside
        F5
If the pain goes on
     Ab5  Eb5          D5
I'm not  gonna make it


Final:

                            P.M    H.A

E|----------------------------------------------------|
B|----------------------------------------------------|
G|----------------------------------------------------|
D|----------------------------------------------------|
A|-0-0-0--0-0-0-0--0-0-0--0-1-0-3--3b~----------------|
E|-0-0-0--0-0-0-0--0-0-0--0-1-0-3---------------------|

                            P.M . . . . . . .  .  .

E|----------------------------------------------------|
B|----------------------------------------------------|
G|----------------------------------------------------|
D|----------------------------------------------------|
A|-0-0-0--0-0-0-0--0-0-0--0-1-0-6-6-6-3-3-3-1--1--1---|
E|-0-0-0--0-0-0-0--0-0-0--0-1-0-6-6-6-3-3-3-1--1--1---|

   P.M .  . . . .  . . .    . .    H.A

E|----------------------------------------------------|
B|----------------------------------------------------|
G|----------------------------------------------------|
D|----------------------------------------------------|
A|-0-0-0--0-0-0-0--0-0-0--0-1-0-3--3b~----------------|
E|-0-0-0--0-0-0-0--0-0-0--0-1-0-3---------------------|

   P.M .  . . . .  . . .    . .       H.A

E|----------------------------------------------------|
B|----------------------------------------------------|
G|----------------------------------------------------|
D|----------------------------------------------------|
A|-0-0-0--0-0-0-0--0-0-0--0-1-0-6-6-6-----------------|
E|-0-0-0--0-0-0-0--0-0-0--0-1-0-6-6-6-3b~-------------|

                            P.M    H.A

E|----------------------------------------------------|
B|----------------------------------------------------|
G|----------------------------------------------------|
D|----------------------------------------------------|
A|-0-0-0--0-0-0-0--0-0-0--0-1-0-3--3b~----------------|
E|-0-0-0--0-0-0-0--0-0-0--0-1-0-3---------------------|

                            P.M     H.A

E|----------------------------------------------------|
B|----------------------------------------------------|
G|----------------------------------------------------|
D|----------------------------------------------------|
A|-0-0-0--0-0-0-0--0-0-0--0-1-0-6\--------------------|
E|-0-0-0--0-0-0-0--0-0-0--0-1-0-6\--1b~---------------|


All I've got
All I've got is insane
All I've got
All I've got is insane

All I've got
All I've got is insane
All I've got
All I've got is insane
  • 1
  • 2
  • 3
  • 4
  • 5
  • 6
  • 7
  • 8
  • 9
  • 10
  • 11
  • 12
    Acordes para:

      0 comentários

        mostrar mais comentários

        Conseguiu tocar?

        90tocaram0ainda não

        Grave um vídeo tocando Duality e mande pra gente!

        00:00 / 00:00
        outros vídeos desta música
        repetirqualidadeautomática
        • automática
        Outro vídeos desta música
          Capítulos
          • Início
          • Tocando a Música
          • Efeitos e configurações
          • Acordes da Introdução
          • Tocando Introdução
          • Ensinando Introdução (Parte 1)
          • Ensinando Introdução (Parte 2)
          • Ensinando Introdução (Riff 1)
          • Dicas da Primeira Parte
          • Tocando Primeira Parte
          • Ensinando Primeira Parte (Guitarra 1)
          • Ensinando Primeira Parte (Guitarra 2)
          • Dicas do Primeiro Refrão
          • Tocando Primeiro Refrão e Riff 3
          • Ensinando Primeiro Refrão
          • Ensinando Riff 3
          • Dicas da Segunda Parte
          • Tocando Segunda Parte
          • Dicas do Segundo Refrão
          • Tocando Segundo Refrão
          • Ensinando Riff do Segundo Refrão
          • Dicas da Terceira Parte
          • Tocando Terceira Parte e Riff 4
          • Ensinando Terceira Parte (Parte 1)
          • Ensinando Terceira Parte (Parte 2)
          • Ensinando Riff 4
          • Dicas do Terceiro Refrão e Final
          • Tocando Terceiro Refrão e Final
          • Ensinando Final (Parte 1)
          • Ensinando Final (Parte 2)
          • Ensinando Final (Parte 3)
          • Encerramento
          00:00 / 00:00
          automática
          • automática
          fecharplay/pause subir/descer velocidade
            acordes
            fechar
            OK
            Feedback