Cifra Club

Everything Ends

Slipknot

Cifra: Principal
exibições 13.014
Tom: G
Drop A: A E A D F# B

( )=harmonics

you are wrong......

Riff A x2
E|-----------------------------------------------------------------|
B|-----------------------------------------------------------------|
G|-----------------------------------------------------------------|
D|-----------------------------------------------------------------|
A|-----------------------------------------------------------------|
D|-1010101010101010-9-9-9-9-9-9-9-9-3-3-3-3-3-3-3-3-6-6-6-6-6-6-6-6|

E|-----------------------------------------------------------------|
B|-----------------------------------------------------------------|
G|-----------------------------------------------------------------|
D|-----------------------------------------------------------------|
A|-----------------------------------------------------------------|
D|-5-5-5-5-5-5-5-5-5-5-5-5-5-5-3-3-1-1-1-1-1-1-1-1-1-1-1-1-1-1-1-1-|

harmonic leads (w/ wah as filter) over Riff a 2nd time

E|-----------------------------------------------------------------|
B|-----------------------------------------------------------------|
G|---(3)---(2.3)-(3)---(2.3)-(3)--(2.3)-(3)-----(3)-(3)-(3)-(3)----|
D|-----------------------------------------------------------------|
A|-----------------------------------------------------------------|
D|-----------------------------------------------------------------|

Interlude: Riff C x2

E|-----------------------------------------------------------------|
B|-----------------------------------------------------------------|
G|-----------------------------------------------------------------|
D|-----------------------------------------------------------------|
A|-------------------------------------------------1-1--1----------|
D|-0-1-4-1-0--0-1-4-1-0--0--4~~-0-6--0--0-1-4-1-0--1-1--1----------|

Riff D x2
E|-----------------------------------------------------------------|
B|-----------------------------------------------------------------|
G|-----------------------------------------------------------------|
D|-----------------------------------------------------------------|
A|--------------------------4-----6----------------1-1--1----------|
D|-0-1-4-1-0--0-1-4-1-0--0--4--0--6--0--0-1-4-1-0--1-1--1----------|

Verses: Fig 1. x2

pm
E|-----------------------------------------------------------------|
B|-----------------------------------------------------------------|
G|-----------------------------------------------------------------|
D|-----------------------------------------------------------------|
A|-0-1-2-0-0-1-2-----1-2-----1-2---0-1-2-0-0-1-2-----1-2-----1-2---|
D|-0-1-2-0-0-1-2-----1-2-----1-2---0-1-2-0-0-1-2-----1-2-----1-2---|

Fig 1 w/o pm x2

Interlude:

E|-----------------------------------------------------------------|
B|-----------------------------------------------------------------|
G|-----------------------------------------------------------------|
D|-----------------------------------------------------------------|
A|-----------------------------------------------------------------|
D|-0-0-0-6---0-6--0-0-0-2-2-2-1-1-0-0-0-6---0-6--0-0-0-2-2-2-1-1---|

Chorus: Riff E

E|-----------------------------------------------------------------|
B|-----------------------------------------------------------------|
G|-----------------------------------------------------------------|
D|-----------------------------------------------------------------|
A|-----------------------------------------------------------------|
D|-1010101010101010-9-9-9-9-9-9-9--3-3-3-3-3-3-3-3-6-6-6-6-6-6-6-6-|

E|-----------------------------------------------------------------|
B|----8-------------------------------4----------------------------|
G|----7-------------------------------3----------------------------|
D|----5-------------------------------1----------------------------|
A|----5-------------------------------1----------------------------|
D|-5--5----------------------3--3--1--1----------------------1/----|

Interlude:

gtr 1
E|------------------------------|     |------------------------------|
B|------------------------------|     |------------------------------|
G|------------------------------|     |------------------------------|
D|------------------------------| x3  |------------------------------|
A|-4--3--6--1--0----------------|     |-0-3(p.h)~~~~-----------------|
D|-4--3--6--1--0--4(p.h)~3(p.h)~|     |-0-----------3(ph.)~~~~----x--|

gtr2.
E|------------------------------|     |------------------------------|
B|------------------------------|     |------------------------------|
G|------------------------------|     |------------------------------|
D|------------------------------| x3  |------------------------------|
A|-4--3--6--1--0----------------|     |-0----------------------------|
D|-4--3--6--1--0--4p3---4p3-x---|     |-0----------------------------|

Fig 4.

E|-----------------------------------------------------------------|
B|-----------------------------------------------------------------|
G|-----------------------------------------------------------------|
D|-----------------------------------------------------------------|
A|-4--3--6--1--0--2--x-3--x-4--3--6--1--0--2--x-3--x---------------|
D|-4--3--6--1--0--2--x-3--x-4--3--6--1--0--2--x-3--x---------------|
Acordes para:
    Composição: SlipknotColaboração e revisão:
    • gustavo marques
    • fernando gonçalves

    0 comentários

      mostrar mais comentários

      Conseguiu tocar?

      1tocaram0ainda não

      Grave um vídeo tocando Everything Ends e mande pra gente!

      00:00 / 00:00
      outros vídeos desta música
      repetirqualidadeautomática
      Outro vídeos desta música
        00:00 / 00:00
        automática
        OK