Cifra Club

Fuck It All

Slipknot

Cifra: Principal
exibições 2.333
Tom: A
(riff 1)
|----------------|
|----------------|
|----------------|
|----------------|
|-5-2--5-8--5-2--|
|-3-0--3-6--3-0--|

(riff 2)
p.m......     (8x)
|----------------|
|----------------|
|----------------|
|----------9-----|
|------------8-7-|
|-000-000--------|

|-------------------|
|-------------------|
|-------------------|
|-9-----8-----7-----|
|---8-7---7-6---6-5-|
|-------------------|

(riff 3)
p.m...............
|-----------------|
|-----------------|
|-----------------|
|-----------------|
|-----------------|
|-3-3-2-0-3-4-3-0-|

(refrão)

(guitarra 1)
p.m.....................................
|---------------------------------------|
|---------------------------------------|
|---------------------------------------|
|---------------------------------------|
|---------------------------------------|
|-000-000---000-000---000-000---000-000-|

(guitarra 2)                          
|---------------------------------------|
|---------------------------------------|
|-8b~~~~8b~~~~8b~~~~8b~~~~8b~~~~8b~~~~~-|
|---------------------------------------|
|---------------------------------------|
|---------------------------------------|

(riff 4)
p.m...............
|-----------------|
|-----------------|
|-----------------|
|-----------------|
|-----------------|
|-1-1/4-4-000-000-|

(refrão)

(guitarra 1)
p.m.........................................................................
|-------------------------------------|-------------------------------------|
|-------------------------------------|-------------------------------------|
|-------------------------------------|-------------------------------------|
|-------------------------------------|-------------------------------------|
|-------------------------------------|-------------------------------------|
|000-000---000-000---000-000---000-000|000-000---000-000---000-000---000-000|

(guitarra 2)
|p.m...................................|
|--------------------------------------|------------------------------------|
|--------------------------------------|------------------------------------|
|--------------------------------------|8b~~~~8b~~~~8b~~~~8b~~~~8b~~~~8b~~~~|
|--------------------------------------|------------------------------------|
|--------------------------------------|------------------------------------|
|-0-0-0-0-0-0-0-0-0-0-0-0-0-0-0-0-0-0-0|------------------------------------|

(solo)

|-19^-19^-16161617191716-1414151715141514----------------------------|
|------------------------------------------1714141517171514----------|
|-----------------------------------------------------------161416~/-|
|--------------------------------------------------------------------|
|--------------------------------------------------------------------|
|--------------------------------------------------------------------|

|-----------------------------------------------------141415171514------|
|---------------------------------------------141517-------------171514-|
|--------------------------14-----1415--141517--------------------------|
|--------14----1415--141517---1517----17--------------------------------|
|--141517--1517----17---------------------------------------------------|
|-----------------------------------------------------------------------|

|----------------------------|
|----------------------------|
|-161416~-16~-16~-16/--------|
|----------------------------|
|----------------------------|
|-----------------------19//-|

p.m.........................
|---------------------------|
|---------------------------|
|---------------------------|
|---------------------------|
|---------------------------|
|-3-0-3-0-3-2---3-0-3-0-3-6-|

(riff 5)
p.m..............
|----------------|
|----------------|
|----------------|
|----------------|
|-----------7777-|
|-000000000------|

(riff 6)
p.m.....................
|-----------------------|
|-----------------------|
|-----------------------|
|-----------------------|
|-----------------------|
|-55555-44444-0000-11111|

(riff 7) I never said......
p.m......................................
|---------------------------------------|
|---------------------------------------|
|---------------------------------------|
|---------------------------------------|
|---------------------------------------|
|-0000-3333-22222-0000-22-333-7777-6666-|

(riff 8)
|----------------------------------|
|----------------------------------|
|-------------------------fdbk-----|
|----------------------------------|
|--2--5--4--2-4-5--9--8----(8)-----|
|--0--3--2--0-2-3--7--6----(6)-----|

p.m....................................
|--------------------------------------|
|--------------------------------------|
|--------------------------------------|
|--------------------------------------|
|--------------------------------------|
|--3-3-3--6-6-6--2-2-2-2-2-2-2-2-2-2-2-|

p.m...................................
|-------------------------------------|
|-------------------------------------|
|-------------------------------------|
|-------------------------------------|
|-------------------------------------|
|--3-3-3--6-6-6--5-5-5--2-2-2-2-2-2-2-|

p.m.....................................
|--------------------------------------|
|--------------------------------------|
|--------------------------------------|
|--------------------------------------|
|--------------------------------------|
|--3-3-3--6-6-6--5-5-5--6-6-6--2-2-2-2-|

p.m....................................
|--------------------------------------|
|--------------------------------------|
|--------------------------------------|
|--------------------------------------|
|--------------------------------------|
|--3-3-3--6-6-6--2-2-2-2-2-2-2-2-2-2-2-|

part 1
|--------------------------------------|
|--------------------------------------|
|--------------------------------------|
|--------------------------------------|
|--5-5-5--8-8-8--4-4-4-4-4-4-4-4-4-4-4-|
|--3-3-3--6-6-6--2-2-2-2-2-2-2-2-2-2-2-|
|-------------------------------------|
|-------------------------------------|
|-------------------------------------|
|-------------------------------------|
|--5-5-5--8-8-8--7-7-7--4-4-4-4-4-4-4-|
|--3-3-3--6-6-6--5-5-5--2-2-2-2-2-2-2-|

|--------------------------------------|
|--------------------------------------|
|--------------------------------------|
|--------------------------------------|
|--5-5-5--8-8-8--7-7-7--8-8-8--4-4-4-4-|
|--3-3-3--6-6-6--5-5-5--6-6-6--2-2-2-2-|

|--------------------------------------|
|--------------------------------------|
|--------------------------------------|
|--------------------------------------|
|--5-5-5--8-8-8--4-4-4-4-4-4-4-4-4-4-4-|
|--3-3-3--6-6-6--2-2-2-2-2-2-2-2-2-2-2-|
Acordes para:
    Colaboração e revisão:
    • Lucas Lago

    0 comentários

      mostrar mais comentários

      Conseguiu tocar?

      0tocaram0ainda não

      Grave um vídeo tocando Fuck It All e mande pra gente!

      00:00 / 00:00
      outros vídeos desta música
      repetirqualidadeautomática
      Outro vídeos desta música
        00:00 / 00:00
        automática
        OK