Cifra Club

Killpop

Slipknot

Cifra: Principal
exibições 11.084
Tom: A
Afinação Drop B
 
Guitarra parte (1) 

C#|----------------------------------------------------------|
G#|-13-13-13-13-13-13-13-13-12-12-12-12-12-12-12-12----------|
E|-----------------------------------------------------------|X2
B|-----------------------------------------------------------|
F#|----------------------------------------------------------|
B|-----------------------------------------------------------|

C#|------------------------------------------------------|
G#|------------------------------------------------------| 
E|-7-7-7-7-7-7-7-7-8-8-8-8-8-8-8-8-----------------------|X4
B|-------------------------------------------------------|
F#|------------------------------------------------------|
B|-------------------------------------------------------|

C#|----------------------------------------------------------|
G#|-13-13-13-13-13-13-13-13-12-12-12-12-12-12-12-12----------|
E|-----------------------------------------------------------|X2
B|-----------------------------------------------------------|
F#|----------------------------------------------------------|
B|-----------------------------------------------------------|

C#|------------------------------------------------------|
G#|------------------------------------------------------| 
E|-7-7-7-7-7-7-7-7-8-8-8-8-8-8-8-8-----------------------|X4
B|-------------------------------------------------------|
F#|------------------------------------------------------|
B|-------------------------------------------------------|



Guitarra parte (2) palm mute

C#|-----------------------------------------------------------------------------------|
G#|-----------------------------------------------------------------------------------|
E|------------------------------------------------------------------------------------|
B|------------------------------------------------------------------------------------|
F#|-----------------------------------------------------------------------------------|
B|-0-2~--5-4~--0-0-2-2-2-0-0-2-2-2-0-0-2-2-2-0-0-2-2-2-0-0-0-0-0-0-0-0-0-0-5-4~--0-4~-|

               * * * * * * * * * * * * * * * * * * * * * * * * 

C#|-----------------------------------------------------------------------|
G#|-----------------------------------------------------------------------|
E|------------------------------------------------------------------------|
B|------------------------------------------------------------------------|
F#|-----------------------------------------------------------------------|
B|-0-0-2-2-2-0-0-2-2-2-0-0-2-2-2-0-0-2-2-2-0-0-0-0-0-0-0-0-0-0-8-7~--0-4~-|

   * * * * * * * * * * * * * * * * * * * * * * * * 

guitarra parte (3)

C#|------------------------------------------------------------|
G#|------------------------------------------------------------|
E|-------------------------------------------------------------|
B|-------------------------------------------------------------|
F#|------------------------------------------------------------|
B|2-2-2-2-2-2-2-2-2-2-2-2-2-2-5-5-5-5-4-4-4-4-4-4-4-4-4-4-4-4--|

C#|------------------------------------------------------------------------|
G#|------------------------------------------------------------------------|
E|-------------------------------------------------------------------------|
B|-3-3-3-3-2-2-2-2-2-2-2-2-2-2-2-2-3-3-3-3-2-2-2-2-2-2-2-2-2-2-2-2---------|
F#|------------------------------------------------------------------------|
B|-----------------------------------------------------------------/-\-----|

C#|------------------------------------------------------------|
G#|------------------------------------------------------------|
E|-------------------------------------------------------------|
B|-------------------------------------------------------------|
F#|------------------------------------------------------------|
B|2-2-2-2-2-2-2-2-2-2-2-2-2-2-5-5-5-5-7-7-4-4-4-4-4-4-4-4-4-4--|

C#|--------------------------------------------------------------|
G#|--------------------------------------------------------------|
E|---------------------------------------------------------------|
B|-3-3-3-3-2-2-2-2-2-2-2-2-2-2-2-2-10-10-10-10-9-9-9-9-9-9-9-9---|
F#|--------------------------------------------------------------|
B|---------------------------------------------------------------|

C#|---------------------------------------|
G#|---------------------------------------|
E|----------------------------------------|
B|-9h10p9----9----------------------------|
F#|-------12---12-10-9-10--7/-------------|
B|----------------------------------------|

Palm mute

C#|---------------------------------------|
G#|---------------------------------------|
E|----------------------------------------|
B|-4-4-4-4-5-5-5-5-4-4-4-4-5-5-5-5--------|X2
F#|x-x-x-x-x-x-x-x-x-x-x-x-x-x-x-x--------|
B|-4-4-4-4-5-5-5-5-4-4-4-4-5-5-5-5--------|

C#|---------------------------------------|
G#|-12brbrbrbr----------------------------|
E|----------------------------------------|X2
B|----------------------------------------|
F#|---------------------------------------|
B|----------------------------------------|

C#|------------------------------------------------------|
G#|------------------------------------------------------| 
E|-7-7-7-7-7-7-7-7-8-8-8-8-8-8-8-8-----------------------|X4
B|-------------------------------------------------------|
F#|------------------------------------------------------|
B|-------------------------------------------------------|


Guitarra parte (5)

C#|-----------------------------------------------------------------------------------|
G#|-----------------------------------------------------------------------------------|
E|------------------------------------------------------------------------------------|
B|------------------------------------------------------------------------------------|
F#|-----------------------------------------------------------------------------------|
B|-8-7~--0-4~--0-0-2-2-2-0-0-2-2-2-0-0-2-2-2-0-0-2-2-2-0-0-0-0-0-0-0-0-0-0-5-4~--0-4~-|

               * * * * * * * * * * * * * * * * * * * * * * * * 

C#|-----------------------------------------------------------------------|
G#|-----------------------------------------------------------------------|
E|------------------------------------------------------------------------|
B|------------------------------------------------------------------------|
F#|-----------------------------------------------------------------------|
B|-0-0-2-2-2-0-0-2-2-2-0-0-2-2-2-0-0-2-2-2-0-0-0-0-0-0-0-0-0-0-8-7~--0-4~-|

   * * * * * * * * * * * * * * * * * * * * * * * * 

Guitarra parte (6)

C#|-------------------------------------------------------------|
G#|-------------------------------------------------------------|
E|-------------------------------------------------------------|
B|-------------------------------------------------------------|
F#|-------------------------------------------------------------|
B|2-2-2-2-2-2-2-2-2-2-2-2-2-2-5-5-5-5-4-4-4-4-4-4-4-4-4-4-4-4--|

C#|------------------------------------------------------------------------|
G#|------------------------------------------------------------------------|
E|-------------------------------------------------------------------------|
B|-3-3-3-3-2-2-2-2-2-2-2-2-2-2-2-2-3-3-3-3-2-2-2-2-2-2-2-2-2-2-2-2---------|
F#|------------------------------------------------------------------------|
B|-----------------------------------------------------------------/-\-----|

C#|------------------------------------------------------------|
G#|------------------------------------------------------------|
E|-------------------------------------------------------------|
B|-------------------------------------------------------------|
F#|---------------------------5-5-5-5-7-7-4-4-4-4-4-4-4-4-4-4--|
B|2-2-2-2-2-2-2-2-2-2-2-2-2-2----------------------------------|

C#|------------------------------------------------------------------------------------|
G#|------------------------------------------------------------------------------------|
E|-------------------------------------------------------------------------------------|
B|-3-3-3-3-2-2-2-2-2-2-2-2-2-2-2-2-10-10-10-10-9-9-9p10-9p10-9p10-9p10-9p10-9p10-9~----|
F#|------------------------------------------------------------------------------------|
B|-------------------------------------------------------------------------------------|


Solo parte (1)

C#|---------------------------------------------------------|
G#|---/20(8x)--19(8x)--22(8x)--20(8x)--24(8x)--20(8x)--17~/-|
E|----------------------------------------------------------|
B|----------------------------------------------------------|
F#|---------------------------------------------------------|
B|----------------------------------------------------------|

Solo parte (2)

C#|-14h15h17p15p14-------------------------------------------|
G#|----------------17p15p13-12h13h15p13p12-------------------|
E|----------------------------------------14p12p11----------|
B|----------------------------------------------------------|
F#|----------------------------------------------------------|
B|----------------------------------------------------------|

C#|----------------------------------------------------------|
G#|----------------------------------------------------------|
E|-9h11h12p11p9---------------------------------------------|
B|--------------12p10p9-7h9h10p9p7--------------------------|
F#|---------------------------------10p9p7-------------------|
B|----------------------------------------------------------|


Solo parte (3)

C#|--------------------------------------------------------------------------------|
G#|-12h13p12h13p12/----15h17p15/13h15p13/12h13p12/10--12p10/8h10p8/7---------------|
E|---------------------------------------------------------------------------------|
B|---------------------------------------------------------------------------------|
F#|--------------------------------------------------------------------------------|
B|---------------------------------------------------------------------------------|

C#|----------------------------------|
G#|-12---10--------------------------|
E|-----9----9-12-9-11-9-9~-----------|
B|-----------------------------------|
F#|----------------------------------|
B|-----------------------------------|


Final
C#|------------------------------------------------------------------|
G#|------------------------------------------------------------------|
E|-------------------------------------------------------------------|
B|-----------------4-5-----------------------------4-5---------------|
F#|-2-0-2-4-5-4-2-4-2/3-2-4-5-4-2-4-2-0-2-4-5-4-2-4-2/3-2-4-5-4-2-4--|
B|-2-0-2-4-5-4-2-4-----2-4-5-4-2-4-2-0-2-4-5-4-2-4-----2-4-5-4-2-4---|

C#|--------------------------------------------------|
G#|--------------------------------------------------|
E|---------------------------------------------------|
B|-----------------4-5-------------------------------|
F#|-2-0-2-4-5-4-2-4-2/3-2-4-5-4-2-4-2-0-2-4-5-4-2-4--|
B|-2-0-2-4-5-4-2-4-----2-4-5-4-2-4-2-0-2-4-5-4-2-4---|
Acordes para:
    Colaboração e revisão:
    • Antonio Constantino
    • Neto Alves

    0 comentários

      mostrar mais comentários

      Conseguiu tocar?

      4tocaram3ainda não

      Grave um vídeo tocando Killpop e mande pra gente!

      00:00 / 00:00
      outros vídeos desta música
      repetirqualidadeautomática
      Outro vídeos desta música
        00:00 / 00:00
        automática
        OK