Cifra Club

Left Behind

Slipknot

Cifra: Principal
exibições 98.528
Tom: E
afinações       Gtr I  (B F# B E G# C#) - 'Gtr I'
                Gtr II (B F# B E G# C#) - 'Gtr. II'

 Intro
  Moderately Fast
 4/4
  Gtr I

|-----------------|-----------------|-----------------|
|-----------------|-----------------|-----------------|
|-----------------|-----------------|-----------------|
|-----------------|-----------------|-----------------|
|-1p0-0-------1s6-|-6-----1---------|-------1-1---1s6-|
|-------2-2p1-----|---0-0---2-1-1s6-|-6-0-0-----2-----|


  Gtr I

|-----------------|-----------------|-----------------|
|-----------------|-----------------|-----------------|
|-----------------|-----------------|-----------------|
|-----------------|-----------------|-----------------|
|-6-----1---------|-------1-1---1s6-|-6-----1---------|
|---0-0---2-1-1s6-|-6-0-0-----2-----|---0-0---2-1-1s6-|
|
| Gtr II
|
|-----------------|-----------------|-----------------|
|-----------------|-----------------|-----------------|
|-----------------|-----------------|-----------------|
|---------x-x-----|-----------------|-----------------|
|---------x-x-----|-------1-1---1s6-|-6-----1---------|
|-------------1s6-|-6-0-0-----2-----|---0-0---2-1-1s6-|


  Gtrs I, II

|-----------------|-----------------|-----------------|
|-----------------|-----------------|-----------------|
|-----------------|-----------------|-----------------|
|-----------------|-----------------|-----------------|
|-------1-1---1s6-|-6-----1---------|-------1-1---1s6-|
|-6-0-0-----2-----|---0-0---2-1-1s6-|-6-0-0-----2-----|


  Gtr I

|-----------------|-----------------|-----------------------------||
|-----------------|-----------------|-----------------------------||
|-----------------|-----------------|-8-8-8-8----8-----8----------||
|-----------------|-----------------|-----------------------------||
|-6-----1---------|-------1-1---1s6-|-6-6-6-6----6-----6----------||
|---0-0---2-1-1s6-|-6-0-0-----2-----|------------------------13\--||
|
| Gtr II
|
|-----------------|-----------------|-----------------------------||
|-----------------|-----------------|-----------------------------||
|-----------------|-----------------|-8-8-8-8pb9-8pb10-8pb10------||
|-----------------|-----------------|-----------------------------||
|-6-----1---------|-------1-1---1s6-|-----------------------------||
|---0-0---2-1-1s6-|-6-0-0-----2-----|------------------------13\--||

 verse

|-----------------|-----------------|-----------------|-----------------|
|-----------------|-----------------|-----------------|-----------------|
|---------------8-|-8-7-7-----------|---------------8-|-8-7-7-----------|
|-----------------|-----------------|-----------------|-----------------|
|-1-0-0-6-6-0-0-6-|-6-5-5-6-6-0-0-1-|-1-0-0-6-6-0-0-6-|-6-5-5-3-3-3-3-1-|
|-1-0-0-6-6-0-0---|-------6-6-0-0-1-|-1-0-0-6-6-0-0---|-------3-3-3-3-1-|
|
|

|-----------------|-----------------|-----------------|-----------------|
|-----------------|-----------------|-----------------|-----------------|
|-----------------|-----------------|-----------------|-----------------|
|-----------------|-----------------|-----------------|-----------------|
|-1-0-0-6-6-0-0-1-|-1-0-0-6-6-0-0-1-|-1-0-0-6-6-0-0-1-|-1-0-0-3-3-3-3-1-|
|-1-0-0-6-6-0-0-1-|-1-0-0-6-6-0-0-1-|-1-0-0-6-6-0-0-1-|-1-0-0-3-3-3-3-1-|

|-----------------|-----------------|-----------------|-----------------||
|-----------------|-----------------|-----------------|-----------------||
|---------------8-|-8-7-7-----------|---------------8-|-8-7-7-----------||
|-----------------|-----------------|-----------------|-----------------||
|-1-0-0-6-6-0-0-6-|-6-5-5-6-6-0-0-1-|-1-0-0-6-6-0-0-6-|-6-5-5-3-3-3-3-1-||
|-1-0-0-6-6-0-0---|-------6-6-0-0-1-|-1-0-0-6-6-0-0---|-------3-3-3-3-1-||
|
| E E E E E E E E   E E E E E E E E   E E E E E E E E   E E E E E E E E
|-----------------|-----------------|-----------------|-----------------||
|-----------------|-----------------|-----------------|-----------------||
|-----------------|-----------------|-----------------|-----------------||
|-----------------|-----------------|-----------------|-----------------||
|-1-0-0-6-6-0-0-1-|-1-0-0-6-6-0-0-1-|-1-0-0-6-6-0-0-1-|-1-0-0-3-3-3-3-1-||
|-1-0-0-6-6-0-0-1-|-1-0-0-6-6-0-0-1-|-1-0-0-6-6-0-0-1-|-1-0-0-3-3-3-3-1-||


   Verse

||------------------|-----------------|-----------------|------------------|
||o-----------------|-----------------|-----------------|------------------|
||----------------8-|-8-7-7-----------|---------------8-|-8-7-7------------|
||------------------|-----------------|-----------------|------------------|
||o-1-0-0-6-6-0-0-6-|-6-5-5-6-6-0-0-1-|-1-0-0-6-6-0-0-6-|-6-5-5-3-3-3-3-1--|
||--1-0-0-6-6-0-0---|-------6-6-0-0-1-|-1-0-0-6-6-0-0---|-------3-3-3-3-1--|
|
|
||------------------|-----------------|-----------------|------------------|
||o-----------------|-----------------|-----------------|------------------|
||------------------|-----------------|-----------------|------------------|
||------------------|-----------------|-----------------|------------------|
||o-1-0-0-6-6-0-0-1-|-1-0-0-6-6-0-0-1-|-1-0-0-6-6-0-0-1-|-1-0-0-3-3-3-3-1--|
||--1-0-0-6-6-0-0-1-|-1-0-0-6-6-0-0-1-|-1-0-0-6-6-0-0-1-|-1-0-0-3-3-3-3-1--|

|-----------------|-----------------|-----------------|-----------------||
|-----------------|-----------------|-----------------|-----------------||
|---------------8-|-8-7-7-----------|---------------8-|-8-7-7-----------||
|-----------------|-----------------|-----------------|-----------------||
|-1-0-0-6-6-0-0-6-|-6-5-5-6-6-0-0-1-|-1-0-0-6-6-0-0-6-|-6-5-5-3-3-3-3---||
|-1-0-0-6-6-0-0---|-------6-6-0-0-1-|-1-0-0-6-6-0-0---|-------3-3-3-3-0-||
|
|
|-----------------|-----------------|-----------------|-----------------||
|-----------------|-----------------|-----------------|-----------------||
|-----------------|-----------------|-----------------|-----------------||
|-----------------|-----------------|-----------------|-----------------||
|-1-0-0-6-6-0-0-1-|-1-0-0-6-6-0-0-1-|-1-0-0-6-6-0-0-1-|-1-0-0-3-3-3-3---||
|-1-0-0-6-6-0-0-1-|-1-0-0-6-6-0-0-1-|-1-0-0-6-6-0-0-1-|-1-0-0-3-3-3-3-0-||


 Chorus

|----------------|----------------|-------------------|-----------------------|
|----------------|----------------|-------------------|-----10-10-10-10-10/---|
|-3-3---8-8--3-3-|---8-8--3---8---|-----7-7-(7)---7---|-----------------------|
|----------------|----------------|-6-6---------6---6-|------7--7--7--7--7/---|
|-1-1---6-6--1-1-|---6-6--1---6---|-------------------|-6-6-------------------|
|----------------|----------------|-------------------|-----------------------|
|
|
|----------------|----------------|-------------------|-----------------------|
|----------------|----------------|-------------------|-----------------------|
|----------------|----------------|-------------------|-----------------------|
|----------------|----------------|-------------------|-----------------------|
|-1--------------|----------------|-6-6-6-6-(6)-6-6-1-|-1-1--1--1--1--1--1--1-|
|----------------|-----------13\--|-6-6-6-6-(6)-6-6-1-|-1-1--1--1--1--1--1--1-|

|-----------------|----------------|-------------------|-----------------------|
|-----------------|----------------|-------------------|-----10-10-10-10-10/---|
|-3-3---8-8---3-3-|-----8-8--3--8--|-----7-7-(7)---7---|-----------------------|
|-----------------|----------------|-6-6---------6---6-|------7--7--7--7--7/---|
|-1-1---6-6---1-1-|-----6-6--1--6--|-------------------|-6-6-------------------|
|-----------------|----------------|-------------------|-----------------------|
|
|
|-----------------|----------------|-------------------|-----------------------|
|-----------------|----------------|-------------------|-----------------------|
|-----------------|----------------|-------------------|-----------------------|
|-3-3---8-8s3-3-3-|-(3)-8-8--3--8--|-------------------|-----------------------|
|-1-1---6-6s1-1-1-|-(1)-6-6--1--6--|-6-6-6-6--6--6-6-6-|-1-1--1--1--1--1--1--1-|
|-----------------|----------------|-6-6-6-6--6--6-6-6-|-1-1--1--1--1--1--1--1-|

|-----------------|----------------|-------------------|-----------------------|
|-----------------|----------------|-------------------|-----10-10-10-10-10/---|
|-3-3---8-8---3-3-|-----8-8--3--8--|-----7-7-(7)---7---|-----------------------|
|-----------------|----------------|-6-6---------6---6-|------7--7--7--7--7/---|
|-1-1---6-6---1-1-|-----6-6--1--6--|-------------------|-6-6-------------------|
|-----------------|----------------|-------------------|-----------------------|
|
|
|-----------------|----------------|-------------------|-----------------------|
|-----------------|----------------|-------------------|-----------------------|
|-----------------|----------------|-------------------|-----------------------|
|-3-3---8-8s3-3-3-|-(3)-8-8--3--8--|-------------------|-----------------------|
|-1-1---6-6s1-1-1-|-(1)-6-6--1--6--|-6-6-6-6-(6)-6-6-1-|-1-1--1--1--1--1--1--1-|
|-----------------|----------------|-6-6-6-6-(6)-6-6-1-|-1-1--1--1--1--1--1--1-|

|-----------------|----------------|
|-----------------|----------------|
|-3-3---8-8---3-3-|-----8-8--3--8--|
|-----------------|----------------|
|-1-1---6-6---1-1-|-----6-6--1--6--|
|-----------------|----------------|
|
| E Q   E E E E E   +E  E Q  Q  Q
|-----------------|----------------|
|-----------------|----------------|
|-----------------|----------------|
|-3-3---8-8s3-3-3-|-(3)-8-8--3--8--|
|-1-1---6-6s1-1-1-|-(1)-6-6--1--6--|
|-----------------|----------------|

|-------------------|-----------------------||
|-------------------|-----10-10-10-10-10/---||
|-----7-7-(7)---7---|-----------------------||
|-6-6---------6---6-|------7--7--7--7--7/---||
|-------------------|-6-6-------------------||
|-------------------|-----------------------||
|
|
|-------------------|-----------------------||
|-------------------|-----------------------||
|-------------------|-----------------------||
|-------------------|-----------------------||
|-6-6-6-6--6--6-6-6-|-1-1--1--1--1--1--1--1-||
|-6-6-6-6--6--6-6-6-|-1-1--1--1--1--1--1--1-||



  Gtrs I, II

|-----------------|-----------------|-----------------|
|-----------------|-----------------|-----------------|
|-----------------|-----------------|-----------------|
|-----------------|-----------------|-----------------|
|-1p0-0-------1s6-|-6-----1---------|-------1-1---1s6-|
|-------2-2p1-----|---0-0---2-1-1s6-|-6-0-0-----2-----|



  Gtr I

|------------------------------||----------------------------------|
|-----------------------------o||-11-------------------------------|
|-8-8-8-8----8-----8-----------||----------------------------------|
|------------------------------||--8-------------------------------|
|-6-6-6-6----6-----6----------o||----------------------------------|
|------------------------13\---||----------------------------------|
|
| Gtr II
|
|------------------------------||----------------------------------|
|-----------------------------o||----------------------------------|
|-8-8-8-8pb9-8pb10-8pb10-------||----------------------------------|
|------------------------------||----------------------------------|
|-----------------------------o||--1-1-1-1-1-1-6-6-6-6-6-6-1-1-1-1-|
|------------------------13\---||----------------------------------|


  W
|-----------------------------------|
|-----------------------------------|
|-----------------------------------|
|-----------------------------------|
|-----------------------------------|
|-----------------------------------|

    gtr II

|-------------------------------|
| S S S S S S S S S S S S S S S S
|-----------------------------------|_______________________
|-----------------------------------|                       |
|-----------------------------------|                       |
|-----------------------------------|                       |
|-1-1-6-6-6-6-6-6-1-1-1-1-6-6-6-6---|                       |gtr 2 toca assim
|-----------------------------------|                       |durante todo
                                                            |o verso com delay
                                                            |
|-----------------------|---------------------------------| |
|-----------------------|---------------------------------| |
|-----------------------|---------------------------------|_|
|-----------------------|---------------------------------|
|-----------------------|---------------------------------|
|-6-6-6-6-6-6-6-6-6-6-6-|-1-1-1-1-1-1-1-1-1-1-1-1-1-1-1-1-|


  Gtr I
                         ^^^^^^^^^^^^^^^^^ let ring---------
|--------------------------------------------0---0---0----0-|
|------------11-11-11--11-11-11-11-11-11-0-----0---0----0---|
|-8---------------------------------------------------------|
|-8---------------------------------------------------------|
|-----------------------------------------------------------|
|-----------------------------------------------------------|

 let ring------      let ring----------
|----------------------/------\--------------------------|
|--11--------------16--17----16-16--16---16--16-16-(16)\-|
|-------------------------13-------------x---x--x--(--)--|
|-------8------/13-----------------------13--13-13-(13)\-|
|--------------------------------------------------------|
|--------------------------------------------------------|
 Take     this              a    -    way.____

|-------------------------------------------|
|-11------11/--16--17---16--16-16-16-16-16--|
|-x-------x---------------------------------|
|-8-------8/13------------------------------|
|-------------------------------------------|
|-------------------------------------------|
Take    this            a        -
           way._________________
|-------------------------------|
|-16--16-16-16--16--1616161616\-|
|-------------------x-x-x-x-x---|
|-------------------1313131313\-|
|-------------------------------|
|-------------------------------|

____  I can feel it on my mouth   I can taste you on my fin-
|----------------------------------------------------------
|-11-----12----------11--------17-16--------16------16-----
|-x-------x----------x----------x--------------------x-----
|-8-------9----------8---------14------13-----------13-----
|----------------------------------------------------------
|----------------------------------------------------------

-gers  I can hear you like the  ho - ly ghost__ and
|-------------------------------------------------------|
|-11-----12--------11-------------16--16-16-16-16-16-16-|
|-x------x---------x--------------13--13-13-13-13-13-13-|
|-8------9---------8------------------------------------|
|-------------------------------------------------------|
|-------------------------------------------------------|

|---------------------------------|---------------|-----------------||
|---------------------------------|---------------|-----------------||
|---------------------------------|---------------|-----------------||
|---------------------------------|---------------|-----------------||
|---------------------------------|-1-----6----1--|---6----1-1-6-6--||
|-xs======xs======xs======x-------|-1-----6----1--|---6----1-1-6-6--||
|
|
|---------------------------------|---------------|-----------------||
|---------------------------------|---------------|-----------------||
|---------------------------------|---------------|-----------------||
|---------------------------------|---------------|-----------------||
|---------------------------------|-1-----6----1--|---6----1-1-6-6--||
|-1-1-1-1-1-1-1-1-1-1-1-1-1-1-1-1-|-1-----6----1--|---6----1-1-6-6--||

|-------------------|-----------------------|
|-------------------|-----10-10-10-10-10/---|
|-----7-7-(7)---7---|-----------------------|
|-6-6---------6---6-|------7--7--7--7--7/---|
|-------------------|-6-6-------------------|
|-------------------|-----------------------|
|
|
|-------------------|-----------------------|
|-------------------|-----------------------|
|-------------------|-----------------------|
|-------------------|-----------------------|
|-6-6-6-6--6--6-6-6-|-1-1--1--1--1--1--1--1-|
|-6-6-6-6--6--6-6-6-|-1-1--1--1--1--1--1--1-|


  Gtrs I, II

|-----------------|-----------------|-----------------|
|-----------------|-----------------|-----------------|
|-----------------|-----------------|-----------------|
|-----------------|-----------------|-----------------|
|-1p0-0-------1s6-|-6-----1---------|-------1-1---1s6-|
|-------2-2p1-----|---0-0---2-1-1s6-|-6-0-0-----2-----|

|-----------------|-----------------|-----------------|
|-----------------|-----------------|-----------------|
|-----------------|-----------------|-----------------|
|-----------------|-----------------|-----------------|
|-6-----1---------|-------1-1---1s6-|-6-----1---------|
|---0-0---2p1-1s6-|-6-0-0-----2-----|---0-0---2-1-1s6-|

|-----------------|----------------||------------------|
|-----------------|----------------||o-----------------|
|-----------------|----------------||------------------|
|-----------------|-------3--------||--------3-3---3s8-|
|-------1-1---1s6-|-6-----1-----1--||o-6-----1-1---1s6-|
|-6-0-0-----2-----|---0-0---2-1-1--||--6-0-0-----2-----|

|-----------------|-----------------|------------------||
|-----------------|-----------------|-----------------o||
|-----------------|-----------------|------------------||
|-8-----3---------|-------3-3---3s8-|-8-----3----------||
|-6-----1-2-1-1s6-|-6-----1-1---1s6-|-6-----1-2-1-1s6-o||
|---0-0---2-1-1s6-|-6-0-0-----2-----|---0-0---2-1-1s6--||

|-----------------|-----------------||-------------------|
|-----------------|-----------------||o------------------|
|-----------------|-----------------||-------------------|
|-------3-3---3s8-|-8-----3---------||-------------------|
|-6-----1-1---1s6-|-6-----1-2-1-1s6-||o------------------|
|-6-0-0-----2-----|---0-0---2-1-1s6-||--6-0----(0)-1-1s6-|
|
| Gtr II
|
|-----------------|-----------------||-------------------|
|-----------------|-----------------||o------------------|
|-----------------|-----------------||-------------------|
|-------3-3---3s8-|-8-----3---------||-------------------|
|-6-----1-1---1s6-|-6-----1-2-1-1s6-||o-6-0----(0)-------|
|-6-0-0-----2-----|---0-0---2-1-1s6-||--6-0----(0)-------|

|--------------------|--------------------|---------------------||
|--------------------|--------------------|--------------------o||
|--------------------|--------------------|---------------------||
|--------------------|--------------------|---------------------||
|--------------------|--------------------|--------------------o||
|--6--0----(0)-1-1s6-|--6--0----(0)-1-1s6-|--6--0----(0)-1-1s6--||
|
|
|--------------------|--------------------|---------------------||
|--------------------|--------------------|--------------------o||
|--------------------|--------------------|---------------------||
|--------------------|--------------------|---------------------||
|-(0)----------------|-(0)----------------|-(0)------(0)-1-1s6-o||
|-(0)----------------|-(0)----------------|-(0)------(0)-1-1s6--||

|------------------|--------------------|
|------------------|--------------------|
|------------------|--------------------|
|------------------|--------------------|
|------------------|--------------------|
|-6-0----(0)-1-1s6-|--6--0----(0)-1-1s6-|
|
|
|------------------|--------------------|
|------------------|--------------------|
|------------------|--------------------|
|------------------|--------------------|
|-6----------------|--------------------|
|-6-0----(0)-------|-(0)----------------|

|--------------------|-----------------*|
|--------------------|-----------------*|
|--------------------|-----------------*|
|--------------------|-----------------*|
|--------------------|-----------------*|
|--6--0----(0)-1-1s6-|--6--0----(0)----*|
|
|
|--------------------|-----------------*|
|--------------------|-----------------*|
|--------------------|-----------------*|
|--------------------|-----------------*|
|--------------------|-----------------*|
|-(0)----------------|-(0)------(0)----*|
Acordes para:
    Colaboração e revisão:
    • gustavo marques
    • fernando gonçalves

    0 comentários

      mostrar mais comentários

      Conseguiu tocar?

      17tocaram1ainda não

      Grave um vídeo tocando Left Behind e mande pra gente!

      00:00 / 00:00
      outros vídeos desta música
      repetirqualidadeautomática
      Outro vídeos desta música
        00:00 / 00:00
        automática
        OK