Cifra Club

Aprenda

Liberate

Slipknot

Cifra: Principal (violão e guitarra)
tom: C
7 Cordas(B,F#,B,B,E,G#,E)


B |----------------------- 
F#|-----------------------      
B |-0-10--0-00-0-00-0-00-- 

B |-1-0- 
F#|-1-0- 
B |-1-0- 
    

B |-1-0--0-00-0-00-0-00- 
F#|-1-0--0-00-0-00-0-00- 
B |-1-0--0-00-0-00-0-00- 
         

B |-1-0x--1r0-1->-3- 
F#|-1-0x--1r0-1->-3- 
B |-1-0x--1r0-1->-3- 

B |-1-0x--3h1p3--0x0x- 
F#|-1-0x--3h1p3--0x0x- 
B |-1-0x--3h1p3--0x0x- 

B |-1-0x-0x-0x-1-0x-1->-3- 
F#|-1-0x-0x-0x-1-0x-1->-3- 
B |-1-0x-0x-0x-1-0x-1->-3- 

B |-0p1--0p1- 
F#|-0p1--0p1- 
B |-0p1--0p1- 

B |-7->-8-7->-8- 
F#|-x->-x-x->-x- 
B |-5->-6-5->-6- 

B |-0-h-1--0-h-1--------------------------------------- 
F#|-0-h-1--0-h-1--------------------------------------- 
B |-0-h-1--0-h-1--------------------------------------- 
      


B |-8---9--7--6- 
F#|-x---x--x--x- 
B |-6---7--6--4- 

B |-2x-2x-2x--1x--0--1- 
F#|-2x-2x-2x--1x--0--1- 
B |-2x-2x-2x--1x--0--1- 

B |-2--1x--0--1- 
F#|-2--1x--0--1- 
B |-2--1x--0--1- 

B |-\\\\\\\\\\-- 
F#|-\\\\\\\\\\-- 
B |------------- 
Composição de Slipknot
15.958 exibições
    • ½ Tom
    • A
    • Bb
    • B
    • C
    • Db
    • D
    • Eb
    • E
    • F
    • F#
    • G
    • Ab
  • Adicionar à lista

    0 comentários

    Ver todos os comentários

    Conseguiu tocar?

    4 Tocaram 0 Ainda não

    Grave um vídeo tocando Liberate e nos envie!

    00:00 / 00:00
    outros vídeos desta música
    repetir qualidade Automático
    Outros vídeos desta música
    00:00 / 00:00
    Automático

    Cifra Club Pro

    Aproveite o Cifra Club com benefícios exclusivos e sem anúncios
    Cifra Club Pro
    Aproveite o Cifra Club com benefícios exclusivos e sem anúncios
    OK