Cifra Club

(sic)

Slipknot

Cifra: Principal
exibições 49.143
Tom: E
E|-------------------------||
B|-------------------------||
G|-------------------------||
D|-0-0-0-0-0-0-0-0-0-0-0-1-||
A|-0-0-0-0-0-0-0-0-0-0-0-1-||
E|-0-0-0-0-0-0-0-0-0-0-0-1-||

E|-------------------------||
B|-------------------------||
G|-------------------------||
D|-0-0-0-0-0-0-0-0-0-0-0-1-||
A|-0-0-0-0-0-0-0-0-0-0-0-1-||
E|-0-0-0-0-0-0-0-0-0-0-0-1-||

E|-------------------------||
B|-------------------------||
G|-------------------------||
D|-0-0-0-0-0-0-0-0-0-0-0-1-||
A|-0-0-0-0-0-0-0-0-0-0-0-1-||
E|-0-0-0-0-0-0-0-0-0-0-0-1-||

E|-------------------------||
B|-------------------------||
G|-------------------------||
D|-0-0-0-0-0-0-0-0-0-0-0-1-||
A|-0-0-0-0-0-0-0-0-0-0-0-1-||
E|-0-0-0-0-0-0-0-0-0-0-0-1-||

E|-------------------------------------||
B|-------------------------------------||
G|-------------------------------------||
D|-0-0---0-0-0-0---0-0-0-0---0-0-0-0-1-||
A|-0-0---0-0-0-0---0-0-0-0---0-0-0-0-1-||
E|-0-0---0-0-0-0---0-0-0-0---0-0-0-0-1-||

E|-------------------------------------||
B|-------------------------------------||
G|-------------------------------------||
D|-0-0---0-0-0-0---0-0-0-0---0-0-0-0-1-||
A|-0-0---0-0-0-0---0-0-0-0---0-0-0-0-1-||
E|-0-0---0-0-0-0---0-0-0-0---0-0-0-0-1-||

E|-------------------------------------||
B|-------------------------------------||
G|-------------------------------------||
D|-0-0---0-0-0-0---0-0-0-0---0-0-0-0-1-||
A|-0-0---0-0-0-0---0-0-0-0---0-0-0-0-1-||
E|-0-0---0-0-0-0---0-0-0-0---0-0-0-0-1-||

E|--------------------------------------||
B|--------------------------------------||
G|--------------------------------------||
D|-0-0---0-0-0-0---0-0-0-0---0-0-0-0-1-0||
A|-0-0---0-0-0-0---0-0-0-0---0-0-0-0-1-0||
E|-0-0---0-0-0-0---0-0-0-0---0-0-0-0-1-0||

E|------------------------------------||
B|------------------------------------||
G|------------------------------------||
D|-2-1-0-0-0-0-0-0--2-1-0-0-0-0-0-0-0-||  (4x)
A|-2-1-0-0-0-0-0-0--2-1-0-0-0-0-0-0-0-||
E|-2-1-0-0-0-0-0-0--2-1-0-0-0-0-0-0-0-||

E|----------------------------||
B|----------------------------||
G|----------------------------||
D|----------------------------|| (2x)
A|----------------------------||
E|-1-0-0-1-0-1-0-1-0--4-3-6-0-||

E|-----------------------------||
B|-----------------------------||
G|-----------------------------||
D|-----------------------------|| (4x)
A|-1-0-0-1-0--1-0--1-0-4-3-6-0-||
E|-1-0-0-1-0--1-0--1-0-4-3-6-0-||

E|----------------------------||
B|----------------------------||
G|----------------------------||
D|----------------------------|| (4x)
A|-1-0-0-1-0-1-0-1-0--4-3-6-0-||
E|-1-0-0-1-0-1-0-1-0--4-3-6-0-||

E|-------------------------------------------------------------------||
B|-------------------------------------------------------------------||
G|-------------------------------------------------------------------||
D|-------------------------------------------------------------------|| (4x)
A|-9999999999-6666666666-8888888888-5555555555-9999999999-8888888888-||
E|-------------------------------------------------------------------||

E|----------------------------||
B|----------------------------||
G|----------------------------||
D|----------------------------||
A|---------------1-0--4-3-6-0-||
E|-1-0-0-1-0-1-0-1-0--4-3-6-0-||

E|-----------------------------||
B|-----------------------------||
G|-----------------------------||
D|-----------------------------|| (4x)
A|-1-0-0-1-0--1-0--1-0-4-3-6-0-||
E|-1-0-0-1-0--1-0--1-0-4-3-6-0-||

E|----------------------------||
B|----------------------------||
G|----------------------------||
D|----------------------------|| (4x)
A|-1-0-0-1-0-1-0-1-0--4-3-6-0-||
E|-1-0-0-1-0-1-0-1-0--4-3-6-0-||

E|-------------------------------------------------------------------||
B|-------------------------------------------------------------------||
G|-------------------------------------------------------------------||
D|-------------------------------------------------------------------|| (4x)
A|-9999999999-6666666666-8888888888-5555555555-9999999999-8888888888-||
E|-------------------------------------------------------------------||

E|------------------||
B|------------------||
G|------------------||
D|------------------|| (4x)
A|-5--5-5--6--0-0-8-||
E|------------------||

E|---------------------------||
B|---------------------------||
G|---------------------------||
D|---------------------------|| (4x)
A|-5-5-5-5-5p0---6-6-6-6-6-6-||
E|---------------6-6-6-6-6-6-||

   PM . . . .
E|----------------------------------||
B|----------------------------------||
G|----------------------------------||
D|----------------------------------|| (4x)
A|----------------------------------||
E|-0-0-0-0-0-1h2--------------------||

E|---------------||
B|---------------||
G|---------------||
D|---------------|| (4x)
A|-0-3-2-8-0-3-2-||
E|-0-3-2-8-0-3-2-||

   PM. . . .
E|----------------------------------||
B|----------------------------------||
G|----------------------------------||
D|----------------------------------|| (4x)
A|----------------------------------||
E|-0-0-0-0-0-1h2--------------------||

E|---------------------------------||
B|---------------------------------||
G|---------------------------------||
D|---------------------------------|| ...........
A|-3-1-0-1-0--3-1-0-1-0--3-1-0-----||
E|-3 1-0-1-0--3-1-0-1-0--3-1-0-----||
Acordes para:
    Composição: SlipknotColaboração e revisão:
    • Danylo Santos
    • fernando gonçalves

    0 comentários

      mostrar mais comentários

      Conseguiu tocar?

      19tocaram1ainda não

      Grave um vídeo tocando (sic) e mande pra gente!

      00:00 / 00:00
      outros vídeos desta música
      repetirqualidadeautomática
      Outro vídeos desta música
        00:00 / 00:00
        automática
        OK