Enviar cifraEntrar

Snuff

Slipknot

Cifra: Principal
exibições 633.143
Tom: A
Afinação: Drop D | D A D G B E

Intro 2x:

   F#m       D5(9)
E|-----------------------------------------
B|-2-x-2-----3--X--2-----------------------
G|-2-x-2-----2--X--2-----------------------
D|-4-x-------0--X--------------------------
A|---x-4-----------4-----------------------
D|-4---------0--X--------------------------



Primeira Parte:
 F#m                          D5(9)
Bury all your secrets in my skin
 F#m
Come away with innocence,
     D5(9)
And leave me with my sins
    F#m                              D5(9)
The air around me still feels like a cage
     F#m
And love is just a camouflage
      D5(9)
For what resembles rage again...

Primeira Parte:

 F#m       D5(9)
E|-----------------------------------------
B|-2-x-2-----3--X--2-----------------------
G|-2-x-2-----2--X--2-----------------------
D|-4-x-------0--X--------------------------
A|---x-4-----------4-----------------------
D|-4---------0--X--------------------------


Solo 1:

E|------------------------------------------
B|------------------------------------------
G|-2--2-2--4--4-4--6--6-6--6h7-----7p6-6-6--
D|-4--4-4--6--6-6--7--7-7--7---7-7-7---7-7--
A|-----------------------------0-0----------
D|-4—-4-4—4--4-4--4----------------0---0-0--


E|------------------------------------------
B|------------------------------------------
G|-4\2-4-6-4-4-4-2\1------------------------
D|-6\4-6-7-6-6-6-4\2------------------------
A|-0---0-0-0-0-0-0--------------------------
D|-0---0-0-0-0-0-0--------------------------


E|-----------------------------------------
B|-----------------------------------------
G|-2--2-2--4--4-4--6-------7/9--7-6-6------
D|-4--4-4--6--6-6--7-------7/9--7-7-7------
A|-----------------------------------------
D|-4—-4-4—-4--4-4--4--4-4-------0-0-0------


E|-----------------------------------------
B|-----------------------------------------
G|-4\2-6-6-4-4-4-2-2-----------------------
D|-6\4-4-7-6-6-6-4-4-----------------------
A|-0---0-0-0-0-0-0-0-----------------------
D|-0---0-0-0-0-0-0-0-----------------------



Refrão:
                           E5(9)
So if you love me, let me go
                    D7M(9/13)/F#
And run away before I know
                      E5(9)
My heart is just too dark to care
                           D7M(9/13)/F#
I can't destroy what isn't           there
                    E5(9)
Deliver me into my Fate
                       D7M(9/13)/F#
If I'm alone I cannot hate
                    E5(9)
I don't deserve to have you...
         D5(7M/9)
Uh, my smile was taken long ago
If I can change I hope I never know

   E5(9)
E|-0--0---0-0-0--0-0-0-0-------------------
B|-0--0---0-0-0--0-0-0-0-------------------
G|-4--4---4-4-4--4-4-4-4-------------------
D|-4--4---4-4-4--4-4-4-4-------------------
A|-----------------------------------------
D|-2—-2---2-2-2--2-2-2-2-------------------


   D7M(9/13)/F#
E|------------0-0-0--0-0-0-0---------------
B|------------0-0-0--0-0-0-0---------------
G|-----7-6----6-6-6--6-6-6-6---------------
D|---7---7----7-7-7--7-7-7-7---------------
A|-----------------------------------------
D|-4-------4--4-4-4--4-4-4-4---------------


   D5(7M/9)
E|------------0-0-0--0-0-0-0---------------
B|------------0-0-0--0-0-0-0---------------
G|-----7-6----6-6-6--6-6-6-6---------------
D|---7---7----7-7-7--7-7-7-7---------------
A|------------0-0-0--0-0-0-0---------------
D|-0-------0--0-0-0--0-0-0-0---------------


Solo 2:


E|-----------------------------------------
B|-10-10-10-10-10-10-10--------------------
G|-9--9--9--9--9--9--9---------------------
D|-7--7--7--7--7--7--7---------------------
A|-9--9--9--9--9--9--9---------------------
D|-----------------------------------------


E|-----------------------------------------
B|-10/14-14-14-14-14-14-14-14--------------
G|-9-/14-14-11-11-11-11-11-11------9--9----
D|-4-----0--0--0--0--0--0--0-------0--0----
A|-9---------------------------------------
D|-----------------------------------------


E|-------0----0-0-0-0-0-0------------------
B|------------0-0-0-0-0-0------------------
G|-6p4-6----6-6-6-6-6-6-6------------------
D|-----------------------------------------
A|-----------------------------------------
D|------------4-4-4-4-4-4------------------


E|-----------------------------------------
B|-10/14-14-14-14-14-14-14-14----------2p0-
G|-9-/14-14-11-11-11-11-11-11----9--9------
D|-4-----0--0--0--0--0--0--0-----0--0------
A|-9---------------------------------------
D|-----------------------------------------



(Repete Primeira Parte com variação na letra)
F#m7(11)                          D5(9)
I still press your letters to my lips
      F#m7(11)
And cherish them in parts of me
      D5(9)
That savor every kiss
F#m7(11)                             D5(9)
I couldn't face a life without your light
    F#m7(11)
But all of that was ripped apart...
D5(9)
      when you refused to fight.
Repetições - Primeira Parte:

   F#m7
E|-2--2---2-2-2----2-----------------------
B|-2--2---2-2-2--x-2-----------------------
G|-2--2---2-2-2--x-2-----------------------
D|-2--2---2-2-2--x-2-----------------------
A|---------------x-4-----------------------
D|-4--4---4-4-4----------------------------


 D5(9)
E|-0--0---0-0-0----------------------------
B|-3--3---3-3-3--x-------------------------
G|-2--2---2-2-2--x-------------------------
D|-0--0---0-0-0--x-------------------------
A|---------------x-4-----------------------
D|----------------------------------------


   F#m7(11)
E|-0--0---0-0-0----------------------------
B|-0--0---0-0-0--x-------------------------
G|-2--2---2-2-2--x-------------------------
D|-4--4---4-4-4--x-------------------------
A|---------------x-4-----------------------
D|-4--4---4-4-4----------------------------


 D5(9)
E|-0--0---0-0-0----------------------------
B|-3--3---3-3-3--x-------------------------
G|-2--2---2-2-2--x-------------------------
D|-0--0---0-0-0--x-------------------------
A|---------------x-4-----------------------
D|----------------------------------------



(Repete Refrão com variação na letra)
                                 E5(9)
So save your breath, I will not hear
                         D7M(9/13)/F#
I think I made it very clear
                    E5(9)
You couldn't hate enough to love
                     D7M(9/13)/F#
Is that supposed to be enough?
                          E5(9)
I only wish you weren't my friend
                           D7M(9/13)/F#
Then I could hurt you in the end
                         E5(9)
I never claimed to be a Saint...
       D5(9)
Uh, my own was banished long ago
It took the Death of Hope to let you go
Solo 3:

   F#m7
E|-2-2-------------------------------------
B|-2---5-2---------------------------------
G|-2---------4---2-------------------------
D|-2-----------------6---4----2------------
A|-----------------------------------------
D|-4-------4---4---4---4----4----4---------


   D5(9)
E|-0---0--0-0-0--0-0-0-0-------------------
B|-3---3--3-3-3--3-3-3-3-------------------
G|-2---2--2-2-2--2-2-2-2-------------------
D|-0---0--0-0-0--0-0-0-0-------------------
A|-0---0--0-0-0--0-0-0-0-------------------
D|-0---0--0-0-0--0-0-0-0-------------------


   F#m7
E|-2-2-------------------------------------
B|-2-2-5-2---------------------------------
G|-2-2-------4---2-------------------------
D|-2-2---------------6---4----2------------
A|-----------------------------------------
D|-4-------4---4---4---4----4----0-0-------


   D5(9)
E|-0---0--0-0-0--0-0-0-0-------------------
B|-3---3--3-3-3--3-3-3-3-------------------
G|-2---2--2-2-2--2-2-2-2-------------------
D|-0---0--0-0-0--0-0-0-0-------------------
A|-0---0--0-0-0--0-0-0-0-------------------
D|-0---0--0-0-0--0-0-0-0-------------------



(Repete Refrão com variação na letra)
                           E5(9)
So break yourself against my stones
                       D7M(9/13)/F#
And spit your pity in my soul
                           E5(9)
You never needed any help
                         D7M(9/13)/F#
You sold me out to save yourself
                       E5(9)
And I won't listen to your shame
                            D7M(9/13)/F#
You ran away - You're all the same
               E5(9)
Angels lie to keep control...
        D5(9)
Uh, my love was punished long ago
If you still care, don't ever let me know
If you still care, don't ever let me know..
Parte Final:

   F#m7(11)
E|-0-0-0-0-0-0-0-0--0-0-0-0-0--0--0--0-----
B|-0-0-0-0-0-0-0-0--0-0-0-0-0--0--0--0-----
G|-2-2-2-2-4-4-4-4--6-6-6-6-9--9--9--9-----
D|-4-4-4-4-6-6-6-6--7-7-7-7-11-11-11-11----
A|-----------------------------------------
D|-4-4-4-4-6-6-6-6—-7-7-7-7-11-11-11-11----


   D5(9)
E|-0-0-0-0-0-0-0-0--0-0-0-0-0--0--0--0-----
B|-0-0-0-0-0-0-0-0--0-0-0-0-0--0--0--0-----
G|-2-2-2-2-4-4-4-4--6-6-6-6-11-11-11-11----
D|-4-4-4-4-6-6-6-6--7-7-7-7-12-12-12-12----
A|-0-0-0-0---------------------------------
D|-0-0-0-0-6-6-6-6—-7-7-7-7-12-12-12-12----


Solo 3:

   F#m7
E|-2-2-------------------------------------
B|-2---5-2---------------------------------
G|-2---------4---2-------------------------
D|-2-----------------6---4----2------------
A|-----------------------------------------
D|-4-------4---4---4---4----4----4---------


   D5(9)
E|-0---0--0-0-0--0-0-0-0-------------------
B|-3---3--3-3-3--3-3-3-3-------------------
G|-2---2--2-2-2--2-2-2-2-------------------
D|-0---0--0-0-0--0-0-0-0-------------------
A|-0---0--0-0-0--0-0-0-0-------------------
D|-0---0--0-0-0--0-0-0-0-------------------


   F#m7
E|-2-2-------------------------------------
B|-2---5-2---------------------------------
G|-2---------4---2-------------------------
D|-2-----------------6---4----2------------
A|-----------------------------------------
D|-4-------4---4---4---4----4----4---------


   D5(9)                   F#4(7)
E|-0---0--0-0-0--0-0-0-0---0---------------
B|-3---3--3-3-3--3-3-3-3---0---------------
G|-2---2--2-2-2--2-2-2-2---4---------------
D|-0---0--0-0-0--0-0-0-0---4---------------
A|-0---0--0-0-0--0-0-0-0---0---------------
D|-0---0--0-0-0--0-0-0-0---4---------------

  • 1
  • 2
  • 3
  • 4
  • 5
  • 6
  • 7
  • 8
  • 9
  • 10
  • 11
  • 12

    0 comentários

      mostrar mais comentários

      Conseguiu tocar?

      171tocaram0ainda não

      Grave um vídeo tocando Snuff e mande pra gente!

      00:00 / 00:00
      outros vídeos desta música
      repetirqualidadeautomática
      • automática
      Outro vídeos desta música
        Capítulos
        • Início
        • Afinação - 1 tom abaixo
        • Tocando a música
        • Acordes da Introdução - Primeira Parte
        • Tocando Introdução - Primeiro Solo
        • Ensinando Introdução - Primeira Parte
        • Ensinando Primeiro Solo (Parte 1 e 2)
        • Ensinando Primeiro Solo (Parte 3 e 4)
        • Acordes do Refrão
        • Tocando Refrão - Segundo Solo
        • Ensinando Refrão
        • Ensinando Segundo Solo
        • Acordes da repetição
        • Tocando Repetição - Terceiro Solo
        • Ensinando Repetição - Primeira Parte
        • Ensinando Terceiro Solo
        • Dicas e acorde final
        • Tocando Refrão e trecho final
        • Ensinando Parte Final
        • Encerramento
        00:00 / 00:00
        automática
        • automática
        1 versão de Tab de baixoexibiçõescontribuições
        2 versões de Guitar Proformatodownloadscontribuição
        fecharplay/pause subir/descer velocidade
          acordes
          fechar
          OK
          Feedback