Cifra Club

Sulfur

Slipknot

Cifra: Principal (violão e guitarra)
exibições 38.273
Tom: A
---------------------------------------|
---------------------------------------|
---------------------------------------| 4x
---------------------------------------|
8-----7-----3-----5-----9--8----2-----3|
6-----5-----3-----5-----9--8----2-----3| (palm muted, escucha la cancion, por el ritmo) 
-----------------------------------------------------------| 
-----------------------------------------------------------| 
-----------------------------------------------------------| 
-----------------------------------------------------------| 
--------------------------------------3333-2222------------|    x 2 
---6666666666-555555555-333333-555555-----------3333-5555--| 
   . . . . . . . . . . . . . . . . . . . . . . . ... .... 

VERSE 
----------------------------------------------------------------------| 
----------------------------------------------------------------------| 
----------------------------------------------------------------------| 
----------------------------------------------------------------------| 
---------------------------------5h6p5---5---------3h5----------------| 
-5h0-0-0-0-0-0-0-1h0-0-0-0-0-0-0-------6---6-5-3-5-----0-0-0-0-0-0----| 
     . . . . . .     . . . . . .       .   . . . .     . . . . . . 

----------------------------------------------------------------------| 
----------------------------------------------------------------------| 
----------------------------------------------------------------------| 
----------------------------------------------------------------------| 
---------------------------------5h6p5---8-7-5-5-5h6p5---5------------|   x3 
-5h0-0-0-0-0-0-0-1h0-0-0-0-0-0-0-------6---------------6---6-5-3-5----| 
     . . . . . .     . . . . . .       . . . . .       .   . . . . 


INTRO 
---------------------------------------|
---------------------------------------|
---------------------------------------| 2x
---------------------------------------|
8-----7-----3-----5-----9--8----2-----3|
6-----5-----3-----5-----9--8----2-----3|
VERSE 
----------------------------------------------------------------------| 
----------------------------------------------------------------------| 
----------------------------------------------------------------------| 
----------------------------------------------------------------------| 
---------------------------------5h6p5---5---------3h5----------------| 
-5h0-0-0-0-0-0-0-1h0-0-0-0-0-0-0-------6---6-5-3-5-----0-0-0-0-0-0----| 
     . . . . . .     . . . . . .       .   . . . .     . . . . . . 

----------------------------------------------------------------------| 
----------------------------------------------------------------------| 
----------------------------------------------------------------------| 
----------------------------------------------------------------------| 
---------------------------------5h6p5---8-7-5-5-5h6p5---5------------|   x3 
-5h0-0-0-0-0-0-0-1h0-0-0-0-0-0-0-------6---------------6---6-5-3-5----| 
     . . . . . .     . . . . . .       . . . . .       .   . . . . 

Chorus 
-------------------------------------------------------| 
-------------------------------------------------------| 
-------------------------------------------------------| 
-0---0-5-7-7--7-7-8-7-------0--0-0-5-7-7--7-7----------| 
-0---0-5-7-5--5-5-----10-8--0--0-0-5-7-5--5-5--0-0-0-0-| 
-0---0-5-7------------------0--0-0-5-7---------0-0-0-0-| 
                                               . . . . 

--------------------------------------------------------| 
--------------------------------------------------------| 
--------------------------------------------------------| 
-1---3-1-0-1---1-1-1-1-3-1-0-3---5--3-0-3-3-3-----------| 
-1---3-1-0-1---1-1-1-1-3-1-0-3---5--3-0-3-3-3-6-5-3-0---|    x 2 
-1---3-1-0-1---1-1-1-1-3-1-0-3---5--3-0-3-3-3-----------| 

INTRO 
---------------------------------------|
---------------------------------------|
---------------------------------------| 3x
---------------------------------------|
8-----7-----3-----5-----9--8----2-----3|
6-----5-----3-----5-----9--8----2-----3|
VERSE 
----------------------------------------------------------------------| 
----------------------------------------------------------------------| 
----------------------------------------------------------------------| 
----------------------------------------------------------------------| 
---------------------------------5h6p5---5---------3h5----------------| 
-5h0-0-0-0-0-0-0-1h0-0-0-0-0-0-0-------6---6-5-3-5-----0-0-0-0-0-0----| 
     . . . . . .     . . . . . .       .   . . . .     . . . . . . 

----------------------------------------------------------------------| 
----------------------------------------------------------------------| 
----------------------------------------------------------------------| 
----------------------------------------------------------------------| 
---------------------------------5h6p5---8-7-5-5-5h6p5---5------------|   x3 
-5h0-0-0-0-0-0-0-1h0-0-0-0-0-0-0-------6---------------6---6-5-3-5----| 
     . . . . . .     . . . . . .       . . . . .       .   . . . . 

Chorus 
-------------------------------------------------------| 
-------------------------------------------------------| 
-------------------------------------------------------| 
-0---0-5-7-7--7-7-8-7-------0--0-0-5-7-7--7-7----------| 
-0---0-5-7-5--5-5-----10-8--0--0-0-5-7-5--5-5--0-0-0-0-| 
-0---0-5-7------------------0--0-0-5-7---------0-0-0-0-| 
                                               . . . . 

--------------------------------------------------------| 
--------------------------------------------------------| 
--------------------------------------------------------| 
-1---3-1-0-1---1-1-1-1-3-1-0-3---5--3-0-3-3-3-----------| 
-1---3-1-0-1---1-1-1-1-3-1-0-3---5--3-0-3-3-3-6-5-3-0---|    x 2 
-1---3-1-0-1---1-1-1-1-3-1-0-3---5--3-0-3-3-3-----------| 

INTERLUDE 
------------------------------------| 
------------------------------------| 
------------------------------------| 
-------------------8-8-8-7-7--------|   x 4 
-5-5-5-6-6-6-5-5-5------------------| 
------------------------------------| 
 . . . . . . . . . 

-------------------------------| 
-------------------------------| 
-------------------7-7-7-6-6---| 
-4-4-4-5-5-5-4-4-4-------------|    x 4 
-------------------------------| 
-------------------------------| 
 . . . . . . . . . 




Chorus 
-------------------------------------------------------| 
-------------------------------------------------------| 
-------------------------------------------------------| 
-0---0-5-7-7--7-7-8-7-------0--0-0-5-7-7--7-7----------| 
-0---0-5-7-5--5-5-----10-8--0--0-0-5-7-5--5-5--0-0-0-0-| 
-0---0-5-7------------------0--0-0-5-7---------0-0-0-0-| 
                                               . . . . 

--------------------------------------------------------| 
--------------------------------------------------------| 
--------------------------------------------------------| 
-1---3-1-0-1---1-1-1-1-3-1-0-3---5--3-0-3-3-3-----------| 
-1---3-1-0-1---1-1-1-1-3-1-0-3---5--3-0-3-3-3-6-5-3-0---|    x 4 
-1---3-1-0-1---1-1-1-1-3-1-0-3---5--3-0-3-3-3-----------| 

INTERLUDE 
------------------------------------| 
------------------------------------| 
------------------------------------| 
-------------------8-8-8-7-7--------|   x 8 
-5-5-5-6-6-6-5-5-5------------------| 
------------------------------------| 
 . . . . . . . . . 

ENDING  
---------------------------------| 
---------------------------------| 
---------------------------------| 
-0-1-0--6-55-1--0-1-0--8-77-1----| 
-0-1-0--6-55-1--0-1-0--8-77-1----| x 8 
-0-1-0--6-55-1--0-1-0--8-77-1----|
Acordes para:
    Composição: Slipknot Colaboração e revisão:
    • Luís Botelho
    • James Johny
    • josé ribeiro

    0 comentários

    mostrar mais comentários

    Conseguiu tocar?

    12 tocaram 1 ainda não

    Grave um vídeo tocando Sulfur e mande pra gente!

    00:00 / 00:00
    outros vídeos desta música
    repetir qualidade Automático
    Outros vídeos desta música
    00:00 / 00:00
    Automático
    OK