Notificações Amigos pendentes

      Slipknot

      The Blister Exists

      26.674 exibições
      Tom: G
      Afinação: (Low to High) B F# B E G# C#
      
      Intro:
      
      |---------------------------------------------------------------------------
      |---------------------------------------------------------------------------
      |---------------------------------------------------------------------------
      |-3-1-0-x-0-----------------------------------------------------------------
      |-3-1-0-x-0-----------------------------------------------------------0-x-0-
      |-3-1-0-x-0-12h13p12b-0-x-0-12h13p12b-0-x-0-12h13p12b-0-x-0-12h13p12b-0-x-0-
      
      
      |-----------------------------------------------------------------
      |-----------------------------------------------------------------
      |-----------------------------------------------------------------
      |-----------------------------------------------------------------
      |-----------------------------------------------------------0-x-0-
      |-12h13p12b-0-x-0-12h13p12b-0-x-0-12h13p12b-0-x-0-12h13p12b-0-x-0-
      
      
      |-----------------------------------------------------------------
      |-----------------------------------------------------------------
      |-----------------------------------------------------------------
      |-----------------------------------------------------------------
      |-----------------------------------------------------------0-x-0-
      |-12h13p12b-0-x-0-12h13p12b-0-x-0-12h13p12b-0-x-0-12h13p12b-0-x-0-
      
      
      |-------------------------------------------------------------------|
      |-------------------------------------------------------------------|
      |-------------------------------------------------------------------|
      |-------------------------------------------------------------------|
      |-----------------------------------------------------------0-0-0-0-|
      |-12h13p12b-0-x-0-12h13p12b-0-x-0-12h13p12b-0-x-0-12h13p12b-0-0-0-0-|
      
      
      
      "ONE, TWO, THREE!!!"
      
      Guitarra 1: (8x)
      
      |-----------------------|
      |-----------------------|
      |-----------------------|
      |-0-x-0-1-1-1-1-1-1-1-1-|
      |-0-x-0-1-1-1-1-1-1-1-1-|
      |-0-x-0-1-1-1-1-1-1-1-1-|
      
      
      
      
      Guitarra 2: (8x)
      
      |-----------------|
      |-----------------|
      |-----------------|
      |-----------------|
      |-0-x-0-----------|
      |-0-x-0-12h13p12b-|
      
      
      "YEAH!!!"
      
      
      
      Guitarras 1 e 2: (8x)
      
      |-----------------------|
      |-----------------------|
      |-----------------------|
      |-0-x-0-1-1-1-1-1-1-1-1-|
      |-0-x-0-1-1-1-1-1-1-1-1-|
      |-0-x-0-1-1-1-1-1-1-1-1-|
      
      
      
      
      "DROP IT!!!"
      
      
      
      Guitarras 1 e 2: (8x)
      
      |-------------|
      |-------------|
      |-------------|
      |-0-x-0-2h3p2-|
      |-0-x-0-2h3p2-|
      |-0-x-0-2h3p2-|
      
      
      
      
      Verso:
      
      
      "Bones in the water and dust in my lungs..."
      
      
      
      Guitarra 1:
      
      
      
      (Para os que preferirem, também pode-se usar os Hammer's e Pull Off's ao invés da palhetada alternada)
      
      
      
      T.P. (3x)
      
      |-------------------------------------------------------------------------------
      |--------15--15-16----------------15--------------------12-14-15-14-12----------
      |------------------15-13-12--------------------12-14-15----------------15-14-12-
      |-13-12---------------------13-12-----12-13-15----------------------------------
      |-------------------------------------------------------------------------------
      |-------------------------------------------------------------------------------
      
         .  .  .                  .  .  .
      
      
      
      
      |---------------------------------------|
      |--------15--15-16----------------15b18-|
      |------------------15-13-12-------------|
      |-13-12---------------------13-12-------|
      |---------------------------------------|
      |---------------------------------------|
      
         .  .  .                   .  .   .
      
      
      
      Guitarra 2: (8x)
      
      |-----------------------|
      |-----------------------|
      |-----------------------|
      |-0-x-0-1-1-1-1-1-1-1-1-|
      |-0-x-0-1-1-1-1-1-1-1-1-|
      |-0-x-0-1-1-1-1-1-1-1-1-|
      
      
      
      
      "Can you feel this?"
      
      
      
      
      Guitarras 1 e 2: (8x)
      
      |-------------|
      |-------------|
      |-------------|
      |-0-x-0-2h3p2-|
      |-0-x-0-2h3p2-|
      |-0-x-0-2h3p2-|
      
      
      
      
      "Blood on the paper and skin on my teeth..."
      
      
      
      Guitarra 1:
      T.P.
      
      |-------------------------------------------------------------------------------
      |--------15--15-16----------------15--------------------12-14-15-14-12----------
      |------------------15-13-12--------------------12-14-15----------------15-14-12-
      |-13-12---------------------13-12-----12-13-15----------------------------------
      |-------------------------------------------------------------------------------
      |-------------------------------------------------------------------------------
      
         .  .  .                  .  .  .
      
      
      
      
      |----------------------------------------|
      |--------15--15-16----------------15b18-|
      |------------------15-13-12--------------|
      |-13-12---------------------13-12--------|
      |----------------------------------------|
      |----------------------------------------|
      
         .  .  .                   .  .   .
      
      
      
      Guitarra 2: (2x)
      
      |-----------------------|
      |-----------------------|
      |-----------------------|
      |-0-x-0-1-1-1-1-1-1-1-1-|
      |-0-x-0-1-1-1-1-1-1-1-1-|
      |-0-x-0-1-1-1-1-1-1-1-1-|
      
      
      
      
      
      Guitarras 1 e 2: (8x)
      
      |-------------|
      |-------------|
      |-------------|
      |-0-x-0-2h3p2-|
      |-0-x-0-2h3p2-|
      |-0-x-0-2h3p2-|
      
      
      
      
      Refrão:
      
      
      
      "I am all, but what am I?"
      
      
      
      Guitarras 1 e 2: (8x)
      
      |--------------------------|
      |--------------------------|
      |--------------------------|
      |-2-3-0--6-5-6-5-0-3-3-3-5-|
      |-2-3-0--6-5-6-5-0-3-3-3-5-|
      |-2-3-0--6-5-6-5-0-3-3-3-5-|
      
      
      
      
      Breakdown:
      
      
      
      |-----|
      |-----|
      |-----|
      |-1-0-|
      |-1-0-|
      |-1-0-|
      
      
      
      
      |-----------|
      |-----------|
      |-----------|
      |-0~~~~~~~~-|
      |-0~~~~~~~~-|
      |-0~~~~~~~~-|
      
      
      
      
      Guitarra 1: (repete quantas vezes for necessário)
      P.M.
      
      |--------------------------------------------|
      |--------------------------------------------|
      |--------------------------------------------|
      |-1-0----0-0-0-0-0-0-0-0-0-0-0-0--0-0-1-0--4-|
      |-1-0----0-0-0-0-0-0-0-0-0-0-0-0--0-0-1-0--4-|
      |-1-0----0-0-0-0-0-0-0-0-0-0-0-0--0-0-1-0--4-|
      
               . . . . . . . . . . .
      
      
      
      Guitarra 2: (repete quantas vezes for necessário)
      T.P.
      
      |-------------------------------------------------------------------------------
      |--------15--15-16----------------15--------------------12-14-15-14-12----------
      |------------------15-13-12--------------------12-14-15----------------15-14-12-
      |-13-12---------------------13-12-----12-13-15----------------------------------
      |-------------------------------------------------------------------------------
      |-------------------------------------------------------------------------------
      
         .  .  .                  .  .  .
      
      
      |----------------------------------------|
      |--------15--15-16-----------------15b18-|
      |------------------15-13-12--------------|
      |-13-12---------------------13-12--------|
      |----------------------------------------|
      |----------------------------------------|
      
         .  .  .                   .  .   .
      
      
      
      Guitarras 1 e 2: (8x)
      
      |-------------|
      |-------------|
      |-------------|
      |-0-x-0-2h3p2-|
      |-0-x-0-2h3p2-|
      |-0-x-0-2h3p2-|
      
      
      
      
      Refrão:
      
      
      
      Guitarras 1 e 2: (16x)
      
      |--------------------------|
      |--------------------------|
      |--------------------------|
      |-2-3-0--6-5-6-5-0-3-3-3-5-|
      |-2-3-0--6-5-6-5-0-3-3-3-5-|
      |-2-3-0--6-5-6-5-0-3-3-3-5-|
      
      
      
      
      Final
      
      
      
      Guitarras 1 e 2:
      P.M.
      
      |--------------------------------------------|
      |--------------------------------------------|
      |--------------------------------------------|
      |-1-0----0-0-0-0-0-0-0-0-0-0-0-0--0-0-1-0--4-|
      |-1-0----0-0-0-0-0-0-0-0-0-0-0-0--0-0-1-0--4-|
      |-1-0----0-0-0-0-0-0-0-0-0-0-0-0--0-0-1-0--4-|
      
               . . . . . . . . . . .
      
      
      
      
      |---------------|
      |---------------|
      |---------------|
      |-1-0~~~~~~~~~~-|
      |-1-0~~~~~~~~~~-|
      |-1-0~~~~~~~~~~-|
      
      
      
        Composição: SlipknotColaboração e revisão:
        • wereckage
        • canibal

        Comentários 5

        140 .
        • joaoqtr joaoqtr: Em 28/08/2014 18:38

          Psychosocial fico mais facil depois da video aula... então faça uma dessa musica por favor .-. (y)

        • ergulos ergulos: Em 26/10/2012 12:30

          quero ver o video então ja q sabe toca

        • daron_malakian daron_malakian: Em 23/07/2012 16:16

          ate q ela nao e tao dificil da pra tira so e fd pq eu toco no violao ai sai muito deiferente

        • tiagorain tiagorain: Em 23/05/2012 16:56

          tambpem fiquei puto por nao ter guitar pro

        • gabitereza gabitereza: Em 30/01/2012 22:23

          ñ tem guitar pro?? porra!!

        140 cancelar

        conseguiu tocar?

        covers

        Grave um vídeo tocando The Blister Exists e mande pra gente!

        Ex.: http://www.youtube.com/watch?v=0IvSvIwGdwk
        ver covers de outras músicas »
        0:00 / 0:00

        Capítulos

          2 versões de violão dificuldade exibições contribuição e correção
          2 versões de guitarra dificuldade exibições contribuição e correção
          2 versões de cavaco dificuldade exibições contribuição e correção
          2 versões de teclado dificuldade exibições contribuição e correção
          2 versões de baixo exibições contribuição e correção
          1 versão de Guitar Proformatodownloadscontribuição
          play/pausefechar subir/descer velocidade
          6ª corda E5ª corda A4ª corda D3ª corda G2ª corda B1ª corda E
            acordes
            publicidade
            fechar
            ok