Cifra Club

The Blister Exists

Slipknot

Cifra: Principal
exibições 27.268
Tom: G
Afinação: (Low to High) B F# B E G# C#

Intro:

|---------------------------------------------------------------------------
|---------------------------------------------------------------------------
|---------------------------------------------------------------------------
|-3-1-0-x-0-----------------------------------------------------------------
|-3-1-0-x-0-----------------------------------------------------------0-x-0-
|-3-1-0-x-0-12h13p12b-0-x-0-12h13p12b-0-x-0-12h13p12b-0-x-0-12h13p12b-0-x-0-


|-----------------------------------------------------------------
|-----------------------------------------------------------------
|-----------------------------------------------------------------
|-----------------------------------------------------------------
|-----------------------------------------------------------0-x-0-
|-12h13p12b-0-x-0-12h13p12b-0-x-0-12h13p12b-0-x-0-12h13p12b-0-x-0-


|-----------------------------------------------------------------
|-----------------------------------------------------------------
|-----------------------------------------------------------------
|-----------------------------------------------------------------
|-----------------------------------------------------------0-x-0-
|-12h13p12b-0-x-0-12h13p12b-0-x-0-12h13p12b-0-x-0-12h13p12b-0-x-0-


|-------------------------------------------------------------------|
|-------------------------------------------------------------------|
|-------------------------------------------------------------------|
|-------------------------------------------------------------------|
|-----------------------------------------------------------0-0-0-0-|
|-12h13p12b-0-x-0-12h13p12b-0-x-0-12h13p12b-0-x-0-12h13p12b-0-0-0-0-|



"ONE, TWO, THREE!!!"

Guitarra 1: (8x)

|-----------------------|
|-----------------------|
|-----------------------|
|-0-x-0-1-1-1-1-1-1-1-1-|
|-0-x-0-1-1-1-1-1-1-1-1-|
|-0-x-0-1-1-1-1-1-1-1-1-|




Guitarra 2: (8x)

|-----------------|
|-----------------|
|-----------------|
|-----------------|
|-0-x-0-----------|
|-0-x-0-12h13p12b-|


"YEAH!!!"



Guitarras 1 e 2: (8x)

|-----------------------|
|-----------------------|
|-----------------------|
|-0-x-0-1-1-1-1-1-1-1-1-|
|-0-x-0-1-1-1-1-1-1-1-1-|
|-0-x-0-1-1-1-1-1-1-1-1-|




"DROP IT!!!"



Guitarras 1 e 2: (8x)

|-------------|
|-------------|
|-------------|
|-0-x-0-2h3p2-|
|-0-x-0-2h3p2-|
|-0-x-0-2h3p2-|




Verso:


"Bones in the water and dust in my lungs..."



Guitarra 1:



(Para os que preferirem, também pode-se usar os Hammer's e Pull Off's ao invés da palhetada alternada)



T.P. (3x)

|-------------------------------------------------------------------------------
|--------15--15-16----------------15--------------------12-14-15-14-12----------
|------------------15-13-12--------------------12-14-15----------------15-14-12-
|-13-12---------------------13-12-----12-13-15----------------------------------
|-------------------------------------------------------------------------------
|-------------------------------------------------------------------------------

   .  .  .                  .  .  .




|---------------------------------------|
|--------15--15-16----------------15b18-|
|------------------15-13-12-------------|
|-13-12---------------------13-12-------|
|---------------------------------------|
|---------------------------------------|

   .  .  .                   .  .   .



Guitarra 2: (8x)

|-----------------------|
|-----------------------|
|-----------------------|
|-0-x-0-1-1-1-1-1-1-1-1-|
|-0-x-0-1-1-1-1-1-1-1-1-|
|-0-x-0-1-1-1-1-1-1-1-1-|




"Can you feel this?"




Guitarras 1 e 2: (8x)

|-------------|
|-------------|
|-------------|
|-0-x-0-2h3p2-|
|-0-x-0-2h3p2-|
|-0-x-0-2h3p2-|




"Blood on the paper and skin on my teeth..."



Guitarra 1:
T.P.

|-------------------------------------------------------------------------------
|--------15--15-16----------------15--------------------12-14-15-14-12----------
|------------------15-13-12--------------------12-14-15----------------15-14-12-
|-13-12---------------------13-12-----12-13-15----------------------------------
|-------------------------------------------------------------------------------
|-------------------------------------------------------------------------------

   .  .  .                  .  .  .




|----------------------------------------|
|--------15--15-16----------------15b18-|
|------------------15-13-12--------------|
|-13-12---------------------13-12--------|
|----------------------------------------|
|----------------------------------------|

   .  .  .                   .  .   .



Guitarra 2: (2x)

|-----------------------|
|-----------------------|
|-----------------------|
|-0-x-0-1-1-1-1-1-1-1-1-|
|-0-x-0-1-1-1-1-1-1-1-1-|
|-0-x-0-1-1-1-1-1-1-1-1-|





Guitarras 1 e 2: (8x)

|-------------|
|-------------|
|-------------|
|-0-x-0-2h3p2-|
|-0-x-0-2h3p2-|
|-0-x-0-2h3p2-|




Refrão:



"I am all, but what am I?"



Guitarras 1 e 2: (8x)

|--------------------------|
|--------------------------|
|--------------------------|
|-2-3-0--6-5-6-5-0-3-3-3-5-|
|-2-3-0--6-5-6-5-0-3-3-3-5-|
|-2-3-0--6-5-6-5-0-3-3-3-5-|




Breakdown:




|-----|
|-----|
|-----|
|-1-0-|
|-1-0-|
|-1-0-|


|-----------|
|-----------|
|-----------|
|-0~~~~~~~~-|
|-0~~~~~~~~-|
|-0~~~~~~~~-|




Guitarra 1: (repete quantas vezes for necessário)
P.M.

|--------------------------------------------|
|--------------------------------------------|
|--------------------------------------------|
|-1-0----0-0-0-0-0-0-0-0-0-0-0-0--0-0-1-0--4-|
|-1-0----0-0-0-0-0-0-0-0-0-0-0-0--0-0-1-0--4-|
|-1-0----0-0-0-0-0-0-0-0-0-0-0-0--0-0-1-0--4-|

         . . . . . . . . . . .



Guitarra 2: (repete quantas vezes for necessário)
T.P.

|-------------------------------------------------------------------------------
|--------15--15-16----------------15--------------------12-14-15-14-12----------
|------------------15-13-12--------------------12-14-15----------------15-14-12-
|-13-12---------------------13-12-----12-13-15----------------------------------
|-------------------------------------------------------------------------------
|-------------------------------------------------------------------------------

   .  .  .                  .  .  .


|----------------------------------------|
|--------15--15-16-----------------15b18-|
|------------------15-13-12--------------|
|-13-12---------------------13-12--------|
|----------------------------------------|
|----------------------------------------|

   .  .  .                   .  .   .



Guitarras 1 e 2: (8x)

|-------------|
|-------------|
|-------------|
|-0-x-0-2h3p2-|
|-0-x-0-2h3p2-|
|-0-x-0-2h3p2-|




Refrão:



Guitarras 1 e 2: (16x)

|--------------------------|
|--------------------------|
|--------------------------|
|-2-3-0--6-5-6-5-0-3-3-3-5-|
|-2-3-0--6-5-6-5-0-3-3-3-5-|
|-2-3-0--6-5-6-5-0-3-3-3-5-|




Final



Guitarras 1 e 2:
P.M.

|--------------------------------------------|
|--------------------------------------------|
|--------------------------------------------|
|-1-0----0-0-0-0-0-0-0-0-0-0-0-0--0-0-1-0--4-|
|-1-0----0-0-0-0-0-0-0-0-0-0-0-0--0-0-1-0--4-|
|-1-0----0-0-0-0-0-0-0-0-0-0-0-0--0-0-1-0--4-|

         . . . . . . . . . . .




|---------------|
|---------------|
|---------------|
|-1-0~~~~~~~~~~-|
|-1-0~~~~~~~~~~-|
|-1-0~~~~~~~~~~-|


Acordes para:
    Composição: SlipknotColaboração e revisão:
    • Vinicius Braga
    • André boto

    0 comentários

      mostrar mais comentários

      Conseguiu tocar?

      3tocaram0ainda não

      Grave um vídeo tocando The Blister Exists e mande pra gente!

      00:00 / 00:00
      outros vídeos desta música
      repetirqualidadeautomática
      Outro vídeos desta música
        00:00 / 00:00
        automática
        OK