Cifra Club

Aprenda

Waste

Smash Mouth

Cifra: Principal (violão e guitarra)
tom: D
(tuning Eb)

B                 F#m
I'm lookin' at my watch
Em7                  A7
At all the time that's been stolen
B                   F#m
When I was carryin' you
Em7                   A7
Seems I've tripped and I've fallen

B                   F#m
Don't want no one to ache
Em7                    A7
Oh, to be drunk and forgetful
B                 F#m
To get out of this unscathed
Em7                  A7
Oh, to be free and inhuman

(chorus)
               Em7                     A7
E|---------------------------|-----------------------
B|----------------3----------|------------------2----
G|------------0--------------|---------------0-------
D|---------4-----------------|-------4----2----------
A|---------------------------|----2----0-------------
E|------0--------------------|-----------------------
        Some...                        may say

             Em7                              A7
E|--------------------2---------|-----------------------3---
B|--------------------3---------|------------------1-----3--
G|----------------0-------------|--------------0------------
D|-------------4----------------|-------4-------------------
A|-----2------------------------|----2----0-----------------
E|---------0--------------------|---------------------------
      I love                                   to play

                  D                               G                        F#
E|--------------------5----------|--------------2----------|------------0------------0----------|
B|-------------------------------|------------------0------|-------------------------0----------|
G|----------------5--------------|-------------------------|---------------3---------3----------|
D|------------4------------------|--------0----------------|-------------------------4----------|
A|---0----5----------------------|-------------------------|-------4-----------------4----------|
E|-------------------------------|----3--------------------|---2---------------------2----------|
When the chance is there to take

B                  F#m
I'm moppin' up the floor
G                      A7
From messy recipies of romance
B                  F#m
I'm packing up the pots
G                    A7
Too many cooks in the kitchen

(chorus)
Some may say
I love to let
A good thing go to waste
I let it go to waste

(solo)

E|---------------------------------------------------------------------------------------------
B|---------------------------------------------------------------------------------------------
G|---------------------------------------------------------------------------------------------
D|---------------------------------------------------------------------------------------------
A|----6-------6---7/9----------------------------------2--4--5---4/5---4-----------------------
E|-------------------------7/9----5-----5/7-----0------------------------------5---------------

E|----------------------------------------------------- 3------3---5----7--7---5-------------5-
B|-----4---------4---5/7----4/5----2-----------------------------------------------------------
G|-----4---------4---6/8----4/6----2--------2/4----------4---6----7--7---6--------/6------6----
D|---------------------------------------------------------------------------------------------
A|---------------------------------------------------------------------------------------------
E|---------------------------------------------------------------------------------------------

B                F#m
Let a good thing go to waste
G               A7
A good thing go to waste
B                 F#m
Let a good thing go to waste
G               A7
A good thing go to waste

(instrumental)

B                 F#m
I'm lookin' at my watch
G                     A7
At all the time that's been stolen
B                 F#m
When I was carryin' you
G                      A7
Seems I've tripped and I've fallen.....
Composição de Greg Camp
Colaboração e revisão:
  • Gabriel Guaitolini
  • Igor Miranda
30.871 exibições
    • ½ Tom
    • A
    • Bb
    • B
    • C
    • Db
    • D
    • Eb
    • E
    • F
    • F#
    • G
    • Ab
  • Adicionar à lista

    0 comentários

    Ver todos os comentários

    Conseguiu tocar?

    1 Tocaram 0 Ainda não

    Grave um vídeo tocando Waste e nos envie!

    00:00 / 00:00
    outros vídeos desta música
    repetir qualidade Automático
    Outros vídeos desta música
    00:00 / 00:00
    Automático

    Cifra Club Pro

    Aproveite o Cifra Club com benefícios exclusivos e sem anúncios
    Cifra Club Pro
    Aproveite o Cifra Club com benefícios exclusivos e sem anúncios
    OK