Cifra Club

Aprenda

Soma

The Smashing Pumpkins

Cifra: Principal (violão e guitarra)
tom: A
Transcrito por LP


Afinação Normal (standard tuning)

/ = slide para cima
\ = slide para baixo
~ = vibrar a corda
^ = bend (esticar)
x = mudo
()= opcional

------ ------- ------

Pré-introdução, bem baixo:
   B         E               G
e|-----0-------------0-----------------------------
b|-----7-----------0---0---------------12-12-(10)--
g|-----8---------9-------9-/-----12-12--x--x-------   4 vezes.
D|---9-9--9----9-----------/-----12-12-12-12-------
A|-9---------7-------------/-10--10-10-10-10-------
E|-------------------------------------------------

Introdução:
    B          E          G
e|------------------------------------------------- 
b|----0----------0------0---0---0---0---0----------
g|--8--------8-9---9/11---7---6---4---2------------
D|------9/11---------------------------------------
A|-------------------------------------------------
E|-------------------------------------------------

e|------------------------------------------------- 
b|----0----------0------0----0----0----0---0-------
g|--8--------8-9---9/11---12---11---14---9---------
D|------9/11---------------------------------------
A|-------------------------------------------------
E|-------------------------------------------------

e|------------------------------------------------- 
b|----0----------0------0---0---0---0---0----------
g|--8--------8-9---9/11---7---6---4---2------------
D|------9/11---------------------------------------
A|-------------------------------------------------
E|-------------------------------------------------

e|------------------------------------------------- 
b|----0----------0------0--------------------------
g|--8--------8-9---9/11---11/12~~------------------
D|------9/11---------------------------------------
A|-------------------------------------------------
E|-------------------------------------------------

Verso: O verso é tocado exatamente igual a Pré-Introdução,
e a segunda guitarra apenas dá uma palhetada por acorde:
     B           E            G
e|---0-----------0------------0-------------------- 
b|---7-----------0------------0--------------------
g|---8-----------9-----------12--------------------
D|---9-----------9-----------12--------------------
A|---9-----------7-----------10--------------------
E|-------------------------------------------------

Ponte: Logo após tocar o primeiro refrão, após o acorde
G, inicia-se a ponte: "In our ruse of fools..."
    F#
e|--------
b|--------
g|--11~------
D|--11~---
A|---9~---
E|--------

Continuando a ponte: "One last kiss..."
    B    F#     B     G
e|------------------------
b|--7-----------7---------
g|--8----11-----8-----12--
D|--9----11-----9-----12--
A|--9-----9-----9-----10--
E|------------------------

Solinho ao fundo: Não parei pra tirar o solinho
que toca ao fundo nesta parte, mas acredito que
ele seja tocado mais ou menos por aqui:

e|-----------------------------------------------------------
b|----------------------------------------------------------- Ai fica repetindo mais
g|----------------------------------------------------------- ou menos isso, tocando
D|----------------------------------------------------------- umas notinhas um pouco
A|--10-12-10-9-10-9-7-9-7-5-7-5-\-2-4-4-4-------------------- mais agudas, terminando
E|----------------------------------------5-7---------------- no dedilhado la embaixo.

Base desse solinho:
       E          G          A
e|---------------------------------
b|---------------------------------
g|--9-9-9-9--12-12-12-12-----------
D|--9-9-9-9--12-12-12-12--7-7-7-7--
A|--7-7-7-7--10-10-10-10--7-7-7-7--
E|------------------------5-5-5-5--

Dedilhado:
    F#
e|-----------------------------------------
b|-------------0----------------------0-~--
g|-------11-------11----11------11---------
D|----11----11-------11------11----11------
A|--9----------------------9---------------
E|-----------------------------------------

Verso Elétrico, ligar distorção.
    A       C       G         F
e|------------------------------------------------- 
b|-------------------------------------------------
g|---------5-5-------------------------------------
D|--7-7----5-5----5-5-5-5---3-3-3-3----------------  4x
A|--7-7----3-3----5-5-5-5---3-3-3-3----------------
E|--5-5-----------3-3-3-3---1-1-1-1----------------
     B     E        G    (F#)
e|------------------------------------------------- 
b|-------------------------------------------------
g|--4-4--------------------------------------------  4x
D|--4-4---2-2----5-5-5-5-(4)-----------------------
A|--2-2---2-2----5-5-5-5-(4)-----------------------
E|--------0-0----3-3-3-3-(2)-----------------------

Solo: Obs - Minha interpretação do solo, não garanto em nada sua
total semelhança com o original.

e|-------------------------
b|-------------------------
g|-8--8----9-/-11h-9--11^--
D|-------------------------
A|-------------------------
E|-------------------------

e|----------------------------------------------
b|-11\10^-\-9-8h9h8-\-7h8h-----------------11~--
g|-------------------------8-7h8h7--------------
D|---------------------------------9-7-8-9------
A|----------------------------------------------
E|----------------------------------------------

e|-----------------------------------------------------------------------
b|-17^h15^-15-16^-16-15h16h15-\-13h15h13---------------------------------
g|---------------------------------------14h12-13-14h12------------------
D|------------------------------------------------------14h12h14h12------
A|------------------------------------------------------------------12~--
E|-----------------------------------------------------------------------

e|-14^-14^-15^--14h15h14h15h14h15h14h15h14h15h14h15h14\12-----------------------
b|--------------------------------------------------------14h12-14--------------
g|-----------------------------------------------------------------14-12-14-----
D|--------------------------------------------------------------------------12--
A|------------------------------------------------------------------------------
E|------------------------------------------------------------------------------

e|-14^-14^-15^-15^-17^^^----21^-21^-22^-22^-21^-------------------------
b|----------------------------------------------------------------------
g|----------------------------------------------------------------------
D|-----------------------------------------------7h9h7-\-5---------5~~--
A|----------------------------------------------------------7-5-7-------
E|----------------------------------------------------------------------

  *Nesta parte, muda a base do solo. 1a mudança*
e|----------------4^~^~-5^---------------------------------------------
b|-------------------------5-3-----------------------------------------
g|-/-9-9-7h9\7\5----------------5-/-9-7------------7/9-7\5-7/9-7\5-6~--
D|--------------------------------------9-7----------------------------
A|------------------------------------------10-------------------------
E|---------------------------------------------------------------------

             |esta parte com pedal de octave|
e|-----------------------------------------------------------
b|-----------------------------------------------------------
g|-9-9-7h9-9--7-7--7-7-5-4--0-2-4--4-4--2-0-----7-7-7-7-9-7--
D|-----------------------------------------------------------
A|-----------------------------------------------------------
E|-----------------------------------------------------------

   *nesta parte muda de novo a base do solo. 2a mudança*
e|-----------------------
b|-----------------------
g|--8-11-9-14-12-11-9-7--  Repetir esta parte 3 vezes e meia,
D|-----------------------          acabando na 12a casa.
A|-----------------------   Tocar com palhetada de harmônicos.
E|-----------------------

Base do solo:

e|------------------------------------------------- 
b|-------------------------------------------------
g|--4-4--------------------------------------------  6x
D|--4-4---2-2----5-5-5-5-(4)-----------------------
A|--2-2---2-2----5-5-5-5-(4)-----------------------
E|--------0-0----3-3-3-3-(2)-----------------------

  1a mudança de base:
e|------------------------------------------------- 
b|-------------------------------------------------
g|---------5-5-------------------------------------
D|--7-7----5-5----5-5-5-5---3-3-3-3----------------  2x
A|--7-7----3-3----5-5-5-5---3-3-3-3----------------
E|--5-5-----------3-3-3-3---1-1-1-1----------------
 
  "depend on me yeah.. until the bitter, bitter.."
e|------------------------------------------------- 
b|-------------------------------------------------
g|----------------7-7-7-7-----5-5-5-5--------------  2x
D|--2--2---5--5---x-x-x-x-----x-x-x-x--------------
A|--2--2---5--5---5-5-5-5--\--3-3-3-3--------------
E|--0--0---3--3------------------------------------

   2a mudança de base, até o fim da música:
     B    E         G
e|--------------------------------------------------
b|--------------------------------------------------
g|--4-4---------------------------------------------
D|--4-4--2-2----5-5-5-5-5---------------------------
A|--2-2--2-2----5-5-5-5-5---------------------------
E|-------0-0----3-3-3-3-3---------------------------

Final da música: Igual a introdução, variando um pouco
o tempo da descida da escala. Terminar com esse acorde:
    B
e|--x--| 
b|--7--|
g|--8--|
D|--9--|
A|--9--|
E|--x--|

divirtam-se, LP. www.tylenol.blogspot.com
Composição de Billy Corgan / James Iha
5.314 exibições
    • ½ Tom
    • A
    • Bb
    • B
    • C
    • Db
    • D
    • Eb
    • E
    • F
    • F#
    • G
    • Ab
  • Adicionar à lista

    0 comentários

    Ver todos os comentários

    Conseguiu tocar?

    0 Tocaram 0 Ainda não

    Grave um vídeo tocando Soma e nos envie!

    00:00 / 00:00
    outros vídeos desta música
    repetir qualidade Automático
    Outros vídeos desta música
    00:00 / 00:00
    Automático

    Cifra Club Pro

    Aproveite o Cifra Club com benefícios exclusivos e sem anúncios
    Cifra Club Pro
    Aproveite o Cifra Club com benefícios exclusivos e sem anúncios
    OK