Cifra Club

Aprenda

Today

The Smashing Pumpkins

Cifra: Principal (violão e guitarra)
Tom: A#
Intro:
E|---11----13----11----15p11------|
B|------11----11----11-------11---|
G|--------------------------------|
D|--------------------------------|
A|--------------------------------|
E|--------------------------------|

( E5  B  A )

( E5  B  A )

( E5  B  C#  A )

 ( E5  B  A )
E|---------------------|   |--------------------8-------|
B|------8-----8h9p8----|   |------8-------8h9------8----|
G|--8-8---8-8-------8--|   |--8-8---8-8-8------------8--|
D|---------------------|   |----------------------------|
A|---------------------|   |----------------------------|
E|---------------------|   |----------------------------|

E5  B          A
  Today is the greatest day I've ever known
E5     B         A
  Can't live for tomorrow, tomorrow's much too long
E5    B      A
  I'll burn my eyes out
E5  B     C#
  Before I get out

F#   A     C#    F#      A         C#
  I wanted more   than life could ever grant me
F#       A     C#     F#    A     Ab   Eb5/Bb
  Bored by the chore   of saving face
E|----------------
B|------5b7-------
G|----------------
D|----------------
A|----------------
E|----------------

E5  B         A
  Today is the greatest day I've ever known
E5     B         A
  Can't wait for tomorrow, I might not have that long
E5    B      A        E5   B    C#
  I'll tear my heart out    before I get out
E|-----------------------------------------|--------------------|
B|-----------------------------------------|--------------------|
G|---------------------12-13---12h13p12----|--------------------|
D|---13----15----13---------------------13-|-13----15----13-----|
A|------13----13----13---------------------|----13----13----13--|
E|-----------------------------------------|--------------------|

E|------------------------------------------|-------------------|
B|---------------------11-------------------|-------------------|
G|---12-13-------------------12h13p12-------|-------------------|
D|---------13-------------13----------13p12-|-13----15----13----|
A|------------13----13----------------------|----13----13----13-|
E|---------------11-------------------------|-------------------|

E|----------------------------------|---------------------------|
B|--------------------11------------|---------------------------|
G|--12-13-------12---------13p12----|---------------------------|
D|--------13------------------------|-13----15----13----17p13---|
A|-----------13----13------------13-|----13----13----13-------13|
E|----------------------------------|---------------------------|

E|--------------------------------|
B|-----------------------13-------|
G|-------------------/12----12-\--|
D|--------------------------------|
A|---13/15-15-15-15---------------|
E|--------------------------------|

F#      A     E5        B
  Pink ribbon scars that never forget
F#      A        E5    B
  I've tried so hard to cleanse these regrets
F#    A          E5     B
  My angel wings    were bruised and restrained
F#    A    Ab   Eb5/Bb
  My belly stings

E5  B     E5  A     E5  B     E5   A
  Today is..  today is..  today is..  the greatest..
E5     B         C#       A      E5     B      C#
Day hee-yay, oo oo ooo ooo ooo.... Day hee-yay-ay, hooo...

F#           A       C#   F#          A       C#
  I want to turn you on,  I want to turn you on....
F#           A       C#   F#          A
  I want to turn you on,  I want to turn you..

E5  B         A        E5  B         A
  Today is the greatest.... today is the greatest day
E5  B         C#         A   E5 B   C#    A     E5
  Today is the greatest.. day..  I have ever really known.
E|------------------------------------------15p11-------------|
B|-------------------------------------11---------11----------|
G|--12---------12h13p12----12----12h13------------------------|
D|-----15-13------------13----13------------------------------|
A|------------------------------------------------------------|
E|------------------------------------------------------------|

Eb5  Bb         Ab
  Today is the greatest day I've ever known
Eb5     Bb         Ab
  Can't wait for tomorrow, I might not have that long
Eb5    Bb      Ab        Eb5   Bb    C
  I'll tear my heart out    before I get out
E|-----------------------------------------|--------------------|
B|-----------------------------------------|--------------------|
G|---------------------12-13---12h13p12----|--------------------|
D|---13----15----13---------------------13-|-13----15----13-----|
A|------13----13----13---------------------|----13----13----13--|
E|-----------------------------------------|--------------------|

E|------------------------------------------|-------------------|
B|---------------------11-------------------|-------------------|
G|---12-13-------------------12h13p12-------|-------------------|
D|---------13-------------13----------13p12-|-13----15----13----|
A|------------13----13----------------------|----13----13----13-|
E|---------------11-------------------------|-------------------|

E|----------------------------------|---------------------------|
B|--------------------11------------|---------------------------|
G|--12-13-------12---------13p12----|---------------------------|
D|--------13------------------------|-13----15----13----17p13---|
A|-----------13----13------------13-|----13----13----13-------13|
E|----------------------------------|---------------------------|

E|--------------------------------|
B|-----------------------13-------|
G|-------------------/12----12-\--|
D|--------------------------------|
A|---13/15-15-15-15---------------|
E|--------------------------------|

F      Ab     Eb5        Bb
  Pink ribbon scars that never forget
F      Ab        Eb5    Bb
  I've tried so hard to cleanse these regrets
F    Ab          Eb5     Bb
  My angel wings    were bruised and restrained
F    Ab    G   D5/A
  My belly stings

Eb5  Bb     Eb5  Ab     Eb5  Bb     Eb5   Ab
  Today is..  today is..  today is..  the greatest..
Eb5     Bb         C       Ab      Eb5     Bb      C
Day hee-yay, oo oo ooo ooo ooo.... Day hee-yay-ay, hooo...

F           Ab       C   F          Ab       C
  I want to turn you on,  I want to turn you on....
F           Ab       C   F          Ab
  I want to turn you on,  I want to turn you..

Eb5  Bb         Ab        Eb5  Bb         Ab
  Today is the greatest.... today is the greatest day
Eb5  Bb         C         Ab   Eb5 Bb   C    Ab     Eb5
  Today is the greatest.. day..  I have ever really known.
E|------------------------------------------15p11-------------|
B|-------------------------------------11---------11----------|
G|--12---------12h13p12----12----12h13------------------------|
D|-----15-13------------13----13------------------------------|
A|------------------------------------------------------------|
E|------------------------------------------------------------|
Composição de Billy Corgan
Colaboração e revisão:
  • fabiano saraiva
72.284 exibições
    • ½ Tom
    • A
    • Bb
    • B
    • C
    • Db
    • D
    • Eb
    • E
    • F
    • F#
    • G
    • Ab
  • Adicionar à lista

    0 comentários

    Mostrar mais comentários

    Conseguiu tocar?

    12 Tocaram 1 Ainda não

    Grave um vídeo tocando Today e mande pra gente!

    00:00 / 00:00
    outros vídeos desta música
    repetir qualidade Automático
    Outros vídeos desta música
    00:00 / 00:00
    Automático

    Cifra Club Pro

    Aproveite o Cifra Club com benefícios exclusivos e sem anúncios
    Cifra Club Pro
    Aproveite o Cifra Club com benefícios exclusivos e sem anúncios
    OK