Cifra Club

Run

Snow Patrol

Tab de baixo: Principal
exibições 1.043
Bass enters after guitars play x2 (Starts at 0:13 same time as drums)

Verse
G:------------------------------------------|
D:------------------------------------------|
A:----------3-3-3---------------------------|
E:5---5---5-------3-3-3--5-3-0-5-5-5--------|


Chorus
G:--------------------------------------------------------------------|
D:--------------------------------------------------------------------|
A:3-3-3-3-3-3-3-3-3-3-3-3-3-3-3-3-2-0---------------------------------|
E:------------------------------------3-3-3-3-3-3-3-3-3-3-3-3-3-3-3-3-|

G:----------------|----------------|----------------|----------------|
D:----------------|----------------|----------------|----------------|
A:----------------|----------------|----------------|-------/8-8-8-8-|
E:5-5-5-5-5-5-5-5-|5-5-5-5-5-5/3-3\|1-1-1-1-1-1-1-1-|1-1-1-1---------|

Verse x10
Chorus x2
Verse x2 then break for x2
Verse x2
Chorus play till end of song

0 comentários

    mostrar mais comentários

    Conseguiu tocar?

    0tocaram0ainda não

    Grave um vídeo tocando Run e mande pra gente!

    00:00 / 00:00
    outros vídeos desta música
    repetirqualidadeautomática
    Outro vídeos desta música
      00:00 / 00:00
      automática
      OK