Cifra Club

Down On The World Again

Social Distortion

Cifra: Principal (violão e guitarra)
Selo Cifra Club: esta cifra foi revisada para atender aos critérios oficiais da nossa Equipe de Qualidade.
tom: F#
E|------------------------------------------------------------------------------------|
B|------------------------------------------------------------------------------------|
G|6--6-6--9-4-------------------------------------------------------------------------|
D|6--6-6--9-4-------------------------------------------------------------------------|
A|4--4-4--7-2-------------------------------------------------------------------------|
E|------------------------------------------------------------------------------------|
Riff over intro played
E|----------------------------------|
B|6-6--10-10--5-5------6-6--10--10--|
G|7-7--9--9---4-4------7-7--9---9---|
D|----------------------------------|
A|----------------------------------|
E|----------------------------------|


[Chorus]

E|-----------------|
B|-----------------|
G|--------6-6-4-4--|
D|4-4-2-2-6-6-4-4--|
A|4-4-2-2-4-4-2-2--|
E|2-2-0-0----------|
Outros vídeos desta música
    11 exibições
      • ½ Tom
      • A
      • Bb
      • B
      • C
      • Db
      • D
      • Eb
      • E
      • F
      • F#
      • G
      • Ab
    • Adicionar à lista

    Afinação da cifra

    Afinador online

      0 comentários

      Ver todos os comentários

      Entre para o Cifra Club PRO

      Tenha acesso a benefícios exclusivos no App e no Site

      • Chega de anúncios

      • Mais recursos no app do Afinador

      • Atendimento Prioritário

      • Aumente seu limite de lista

      • Ajude a produzir mais conteúdo

      Cifra Club Pro

      Aproveite o Cifra Club com benefícios exclusivos e sem anúncios
      Cifra Club Pro
      Aproveite o Cifra Club com benefícios exclusivos e sem anúncios
      OK