Cifra Club

Far Behind

Social Distortion

Cifra: Principal (violão e guitarra)
Selo Cifra Club: esta cifra foi revisada para atender aos critérios oficiais da nossa Equipe de Qualidade.
tom: Ab
Intro X4
e-------------------------------------|
B-------------------------------------|
G-------8-----------------------------|
D---6---8---11------------------------|
A---6---6---11------------------------|
E---4-------9-------------------------|

Verse(Palm Muted)/Chorus
e-------------------------------------|
B-------------------------------------|
G-------8888--------------------------|
D---66668888--------------------------|
A---6666666611111111111---------------|
E---4444----9 9 9 9 9 9---------------|

Gtr 2. plays this during the chorus
e-------------------------------------|
B---9-9-8-8-9-9-9-9-------------------|
G----8-8-8-8-8-8-8-8------------------|
D-------------------------------------|
A-------------------------------------|
E-------------------------------------|

Bridge
e---------------------------------------|
B---99999999999999999999----------------|
G---88888888888888888888----------------|
D---------------------------------------|
A---------------------------------------|
E---------------------------------------|

Solo ?????
Outros vídeos desta música
    1.581 exibições
      • ½ Tom
      • A
      • Bb
      • B
      • C
      • Db
      • D
      • Eb
      • E
      • F
      • F#
      • G
      • Ab
    • Adicionar à lista

    Afinação da cifra

    Afinador online

      0 comentários

      Ver todos os comentários

      Entre para o Cifra Club PRO

      Tenha acesso a benefícios exclusivos no App e no Site

      • Chega de anúncios

      • Mais recursos no app do Afinador

      • Atendimento Prioritário

      • Aumente seu limite de lista

      • Ajude a produzir mais conteúdo

      Cifra Club Pro

      Aproveite o Cifra Club com benefícios exclusivos e sem anúncios
      Cifra Club Pro
      Aproveite o Cifra Club com benefícios exclusivos e sem anúncios
      OK