Cifra Club

Afrodisiacos

Soda Stereo

Cifra: Principal (violão e guitarra)
Selo Cifra Club: esta cifra foi revisada para atender aos critérios oficiais da nossa Equipe de Qualidade.
tom: G#m
E|-----------------------------------|
B|-----------------------------------|
G|-9-8---6--6------------------------|
D|-----9------7p6---6-7-9-7-6--------| x12
A|----------------9-----------9-7-6--|
E|-----------------------------------|

E|--------------------------6-6-6-6-4-6-----9-9-9-9-7-9---|
B|-9--7--5--5--9--7--5--5---5-5-5-5-5-5-----8-8-8-8-8-8---|
G|-9--8--6--6--9--8--6--6---6-6-6-6-6-6-----9-9-9-9-9-9---|
D|--------------------------4-4-4-4-4-4-----7-7-7-7-7-7---| x2
A|--------------------------4-4-4-4-4-4-----7-7-7-7-7-7---|
E|--------------------------------------------------------|

E|--7--7--6-6-6--4-4--6-6--7--7--6-6-6--4-4--6-6--|
B|-11--9--7-7-7--5-5--7-7-11--9--7-7-7--5-5--7-7--|
G|--9--9--6-6-6--4-4--6-6--9--9--6-6-6--4-4--6-6--|
D|--9--9--8-8-8--6-6--8-8--9--9--8-8-8--6-6--8-8--|
A|--7--7--6-6-6--4-4--6-6--7--7--6-6-6--4-4--6-6--|
E|------------------------------------------------|
Outros vídeos desta música
107 exibições
    • ½ Tom
    • Am
    • Bbm
    • Bm
    • Cm
    • C#m
    • Dm
    • Ebm
    • Em
    • Fm
    • F#m
    • Gm
    • G#m
  • Adicionar à lista

Afinação da cifra

Afinador online

    0 comentários

    Ver todos os comentários

    Entre para o Cifra Club PRO

    Tenha acesso a benefícios exclusivos no App e no Site

    • Chega de anúncios

    • Mais recursos no app do Afinador

    • Atendimento Prioritário

    • Aumente seu limite de lista

    • Ajude a produzir mais conteúdo

    Cifra Club Pro

    Aproveite o Cifra Club com benefícios exclusivos e sem anúncios
    Cifra Club Pro
    Aproveite o Cifra Club com benefícios exclusivos e sem anúncios
    OK