Cifra Club

Génesis

Soda Stereo

Cifra: Principal (violão e guitarra)
Selo Cifra Club: esta cifra foi revisada para atender aos critérios oficiais da nossa Equipe de Qualidade.
tom: Em
RIFF 1
E|--------------------------------|
B|--------------------------------|
G|--------------------------------|
D|--------------------------------|
A|------2----/10------10/2--------|
E|--0-----------------------------|

RIFF 2
E|------------------------------------------|
B|------------------------------------------|
G|------------------------------------------|
D|--------------------------12---12---12----|
A|------2----/10---------10---10---10---10/2|
E|--0---------------------------------------|

RIFF 3
E|--------------------------------|
B|--------------------------------|
G|--------------------------------|
D|--------------------------------|
A|------2----/10---10p12h2--------|
E|--0-----------------------------|

RIFF 4
E|--------------------------------|
B|--------------------------------|
G|--------------------------------|
D|--------------------------------|
A|------2/7--7-5-7/5/4h5p4-2------|
E|--------------------------------|


(Intro)

Riff 1 x7
Riff 2 x1

Riff 2 Riff 1                           Riff 2    Riff 2
Cuando todo era nada, era nada el Principio
Riff 1 Riff 1                             Riff 2 Riff 1
Él     era el Principio y de la noche hizo luz
C                  B7               Em Riff 4 Em
y fue el cielo y esto que está aquí.

Em                           Em
Hubo tierra, agua, sangre, flores,
(Variante) Em              Em
todo eso y también tiempo.
Em  (variante)  Em                           Em
Claramente digo que este fue el mundo del hombre
C             B7
 y así fue. Así...

Riff 1
Riff 2
Riff 3
Riff 1

Riff 2 Riff1                                       Riff 3 Riff 2
Hombre que te miras en las aguas para ver quien sos
Riff 1 x3                                          Riff 2
Mírame si quieres verte porque imagen mía sos.
C                  B7            Em Riff 4 Em (variante)
Ya lo hiciste: vive sólo hoy.

Em                                        Em
Hubo pueblos y países y hubo hombres con memoria
Em (variante)   Em                           Em
claramente digo que este fue el mundo del hombre
C             B7              Em
 y se contaron todas estas cosas
C            B7
y fue así. Así...

COMO B  SE TOCARA DESDE A  TERCERA ESTROF 
Riff 1
Riff 2
Riff 3
Riff 1
Riff 3
Riff 2
Riff 1 x2
Riff 2
Riff 1
C    B7 Riff 4 x2

(principio del solo):
e|--12--12/10--10/9--9/7---| (X3)

e|---12--12/14--14/15-------------|

Em        Variante
E|-3----| |-------
B|-3----| |-------
G|-0----| |-------
D|-2----| |-------
A|-2----| |-------
E|-0----| |-3h2p3-
00:00 / 00:00
Outros vídeos desta música
Repetir
Outros vídeos desta música
7.055 exibições
    • ½ Tom
    • Am
    • Bbm
    • Bm
    • Cm
    • C#m
    • Dm
    • Ebm
    • Em
    • Fm
    • F#m
    • Gm
    • G#m
  • Adicionar à lista

Afinação da cifra

Afinador online

    0 comentários

    Ver todos os comentários

    Entre para o Cifra Club PRO

    Tenha acesso a benefícios exclusivos no App e no Site

    • Chega de anúncios

    • Mais recursos no app do Afinador

    • Atendimento Prioritário

    • Aumente seu limite de lista

    • Ajude a produzir mais conteúdo

    00:00 / 00:00

    Cifra Club Pro

    Aproveite o Cifra Club com benefícios exclusivos e sem anúncios
    Cifra Club Pro
    Aproveite o Cifra Club com benefícios exclusivos e sem anúncios
    OK