Cifra Club

Planeador

Soda Stereo

Cifra: Principal (violão e guitarra)
Selo Cifra Club: esta cifra foi revisada para atender aos critérios oficiais da nossa Equipe de Qualidade.
tom: G
Intro:            1.5sec
E|---------------------------------------|
B|-----(1)-----3b-------1-------(3)------|
G|----0----------------0-----------------|
D|---2-------4--------2-------4----------|
A|--0-------0--------0-------0-----------|
E|---------------------------------------(x2)|

Am       D/F#  Am    D/F#
Gira el disco lentamente
Am       D/F#  C  C/B  G
Por la habitación

Soy piloto de juguetes
Entre nubes voy

D         C
Cruzo el valle
D       C
En mi frágil
       G  G/D C D
Planeador

Am           Am
La ternura de su duda
E  habitual rincón
En cada mínimo detalle
Creo oír tu voz

Cruza el valle
Suenas frágil
Como yo


El final

E|------------------------------|
B|------------------------------|
G|-------5-----5//(7b)| …---------
D|------5-----------------------|
A|----7------7------------------|
E|---5------5-------------------(x4)|



Usen repetidores, ademas de la afinación estándar
Usen un poco de distorsión plus y un delay
Para recalcar
Usen efecto dilate pero muy poco
Solo para darle ecos a la notas…
Ahh y una buena guitarra PRS ó Parker!
00:00 / 00:00
Outros vídeos desta música
Repetir
Outros vídeos desta música
2.196 exibições
    • ½ Tom
    • A
    • Bb
    • B
    • C
    • Db
    • D
    • Eb
    • E
    • F
    • F#
    • G
    • Ab
  • Adicionar à lista

Afinação da cifra

Afinador online

    0 comentários

    Ver todos os comentários

    Entre para o Cifra Club PRO

    Tenha acesso a benefícios exclusivos no App e no Site

    • Chega de anúncios

    • Mais recursos no app do Afinador

    • Atendimento Prioritário

    • Aumente seu limite de lista

    • Ajude a produzir mais conteúdo

    00:00 / 00:00

    Cifra Club Pro

    Aproveite o Cifra Club com benefícios exclusivos e sem anúncios
    Cifra Club Pro
    Aproveite o Cifra Club com benefícios exclusivos e sem anúncios
    OK