Cifra Club

Rock

Soda Stereo

Cifra: Principal (violão e guitarra)
Selo Cifra Club: esta cifra foi revisada para atender aos critérios oficiais da nossa Equipe de Qualidade.
tom: G
Parte 1:
E|-----------|---------------3---2---2-|-----------------------|
B|-----------|---------------3---3---3-|------2-------2--------|
G|----4---4--|---------------0---2---2-|------2-------2---0----|
D|----4---4--|---------------0---0---0-|--2---2---2---2---0----|
A|----2---2--|-------------------------|--0---0---0---0---0----|
E|-----------|--X---3---3--------------|-----------------------|

Parte 2:
E|-------------|-----3---2---2-|-----------------------|
B|-------------|-----3---3---3-|------2-------2--------|
G|-------------|-----0---2---2-|------2-------2---0----|
D|--4-4-4-4-4--|-----0---0---0-|--2---2---2---2---0----|
A|--2-2-2-0-2--|---------------|--0---0---0---0---0----|
E|-------------|---------------|-----------------------|

Parte 3:
E|---------------------------------------------------------------------|
B|----------------------------------------------------------3-3--------|
G|----------------------------------------------------------2-2--------|
D|---------------------------------------------------------0---0-2-4/7\|
A|-2-2-4-5~-4-5-4-2--------------------2-2-4-5-7/9-7-5-4\-2~-----------|
E|------------------5-2-/7-7\5-2-0-2-0---------------------------------|

Parte 4:
E|---3---2---2-|     |---3---2---2-|-----------------------|
B|---3---3---3-|     |---3---3---3-|------2-------2--------|
G|---0---2---2-|     |---0---2---2-|------2-------2---0----|
D|---0---0---0-|     |---0---0---0-|--2---2---2---2---0----|
A|-------------|     |-------------|--0---0---0---0---0----|
E|-------------|(3x) |-------------|-----------------------|

Parte 5-Solo:
E|--7-5-7-5-7-5\2-2-0-2-5p2p0-2-5/7/12-10-9-10--12-10-9\7--9-7-5-5h7p5-|
B|-0-0-0-0-0-0-----0---0-------0-0-0--0--0-0--0-----------0------------|
G|---------------------------------------------------------------------|
D|---------------------------------------------------------------------|
A|---------------------------------------------------------------------|
E|---------------------------------------------------------------------|

E|----5h7p5---5h7p5---5h7p5--7h9p7--5h7p5--7h9p7---14-12-14----12-14-15-|
B|-0-0-----0-0-----0-0------0------0------0------0---0------0-0---------|
G|----------------------------------------------------------------------|
D|----------------------------------------------------------------------|
A|----------------------------------------------------------------------|
E|----------------------------------------------------------------------|

E|--14-12-----12-14-15-14-12\10-10\9-9-10-12-10-9-9\-2-5p2p0-2-5/7-7---5h7p5--5\2-2-5p2p0-2-5h7p5|
B|--------0-0---------0--0--0--0-----------------0-----0-------0------0------7------0-------0----|
G|-----------------------------------------------------------------------------------------------|
D|-----------------------------------------------------------------------------------------------|
A|-----------------------------------------------------------------------------------------------|
E|-----------------------------------------------------------------------------------------------|

E|-7h9p7-9h10p9-10h12p10-12---|
B|0-----0------0--------0-----|
G|----------------------------|
D|----------------------------|
A|----------------------------|
E|----------------------------|

Parte 6:
E|---7---7---7---7---7----7--7--7--7--7--7--7-----------5--5--5--5--5---9---9---9---9---9---9---9--|
B|---10--10--10--10--10---8--8--8--8--8--8--8-----------7--7--7--7--7---10--10--10--10--10--10--10-|
G|---7---7---7---7---7----7--7--7--7--7--7--7-----------7--7--7--7--7---9---9---9---9---9---9---9--|
D|---7---7---7---7---7----9--9--9--9--9--9--9-----------7--7--7--7--7---11--11--11--11--11--11--11-|
A|-------------------------------------------------------------------------------------------------|
E|-------------------------------------------------------------------------------------------------|
00:00 / 00:00
Outros vídeos desta música
Repetir
Outros vídeos desta música
447 exibições
    • ½ Tom
    • A
    • Bb
    • B
    • C
    • Db
    • D
    • Eb
    • E
    • F
    • F#
    • G
    • Ab
  • Adicionar à lista

Afinação da cifra

Afinador online

    0 comentários

    Ver todos os comentários

    Entre para o Cifra Club PRO

    Tenha acesso a benefícios exclusivos no App e no Site

    • Chega de anúncios

    • Mais recursos no app do Afinador

    • Atendimento Prioritário

    • Aumente seu limite de lista

    • Ajude a produzir mais conteúdo

    00:00 / 00:00

    Cifra Club Pro

    Aproveite o Cifra Club com benefícios exclusivos e sem anúncios
    Cifra Club Pro
    Aproveite o Cifra Club com benefícios exclusivos e sem anúncios
    OK