Cifra Club

Sequencia Inicial

Soda Stereo

Cifra: Principal (violão e guitarra)
Selo Cifra Club: esta cifra foi revisada para atender aos critérios oficiais da nossa Equipe de Qualidade.
tom: C
INTRO
E|------0000000--0/000/000000/0000--00000------|
B|------5555555--5/777/101010/1111--00000------|
G|------6666666--7/999/121212/2222--00000------|
D|------7777777--7/999/121212/3333--22222------|
A|------0000000--0/000/000000/0000--22222------|
E|----------------------------------00000------| X4

VERSO

E|------44444--55555--| 1----/777787577/44444244244|
B|------22222--22222--| 2----/555555555/22222222222|
G|------22222--22222--| 3----/555555555/22222222222|
D|------22222--22222--| 4----/555555555/22222222222|
A|--------------------| 5--------------------------|
E|--------------------| X 2    6--------------------------|X3

(D  C)

E|----2--00000-|
B|----2--00000-|
G|----2--00000-|
D|-------------|
A|-------------|
E|-------------| X4

VERSO

E|------44444--55555--| 1----/777787577/44444244244|
B|------22222--22222--| 2----/555555555/22222222222|
G|------22222--22222--| 3----/555555555/22222222222|
D|------22222--22222--| 4----/555555555/22222222222|
A|--------------------| 5--------------------------|
E|--------------------| X 2    6--------------------------|X3

(D  C)

E|----2--00000-|
B|----2--00000-|
G|----2--00000-|
D|-------------|
A|-------------|
E|-------------| X4

YA VIENE...

G  O

E|------------------------------------------------------------|
B|----------------------------------------------3-3-----------|
G|----2-2-0-0-000--2-2-0-0-000---4-4-2-2--2-2-2------2--2-2-2-|
D|------------------------------------------------------------|
A|------------------------------------------------------------|
E|------------------------------------------------------------| x2

E|------------000---------------------------------------------|
B|------------000-------------------------------3-3-----------|
G|----2-2-0-0-000--2-2-0-0-000---4-4-2-2--2-2-2------2--2-2-2-|
D|------------------------------------------------------------|
A|------------------------------------------------------------|
E|------------------------------------------------------------|

E|------------000---------------------------------------------|
B|------------000-------------------------------3-3-----------|
G|----2-2-0-0-000--2-2-0-0-000---4-4-2-2--2-2-2------2--2-2-2-|
D|------------------------------------------------------------|
A|------------------------------------------------------------|
E|------------------------------------------------------------|

INTRO
E|------0000000--0/000/000000/0000--00000------|
B|------5555555--5/777/101010/1111--00000------|
G|------6666666--7/999/121212/2222--00000------|
D|------7777777--7/999/121212/3333--22222------|
A|------0000000--0/000/000000/0000--22222------|
E|----------------------------------00000------| X3

E|------44444--55555------/777787577/44444244244|
B|------22222--22222------/555555555/22222222222|
G|------22222--22222------/555555555/22222222222|
D|------22222--22222------/555555555/22222222222|
A|----------------------------------------------|
E|----------------------------------------------|

E|---0------|
B|---1------|
G|---2------|
D|---3------|
A|---3------|
E|----------|
00:00 / 00:00
Outros vídeos desta música
Repetir
Outros vídeos desta música
138 exibições
    • ½ Tom
    • A
    • Bb
    • B
    • C
    • Db
    • D
    • Eb
    • E
    • F
    • F#
    • G
    • Ab
  • Adicionar à lista

Afinação da cifra

Afinador online

    0 comentários

    Ver todos os comentários

    Entre para o Cifra Club PRO

    Tenha acesso a benefícios exclusivos no App e no Site

    • Chega de anúncios

    • Mais recursos no app do Afinador

    • Atendimento Prioritário

    • Aumente seu limite de lista

    • Ajude a produzir mais conteúdo

    00:00 / 00:00

    Cifra Club Pro

    Aproveite o Cifra Club com benefícios exclusivos e sem anúncios
    Cifra Club Pro
    Aproveite o Cifra Club com benefícios exclusivos e sem anúncios
    OK