Cifra Club

Sweet Sahumerio

Soda Stereo

Cifra: Principal (violão e guitarra)
Selo Cifra Club: esta cifra foi revisada para atender aos critérios oficiais da nossa Equipe de Qualidade.
tom: Em
[Tab - Intro]

E|---------------------------------|
B|--13---17---13----19-------------|
G|---------------------------------|
D|---------------------------------|
A|---------------------------------|
E|---------------------------------|

[Tab - Riff 1]

    D              C    G
E|--------------2------------3-2---|
B|------3-----3--------------------|
G|----2-----2-------------2--------|
D|--0-----0--------2----5----------|
A|-----------------3---------------|
E|---------------------------------|

    D              C    G
E|--------------2------------3-2---|
B|------3-----3--------------------|
G|----2-----2-------------2--------|
D|--0-----0--------2----5----------|
A|-----------------3---------------|
E|---------------------------------|

    D              C    G
E|--------------2------------3-2---|
B|------3-----3--------------------|
G|----2-----2-------------2--------|
D|--0-----0--------2----5----------|
A|-----------------3---------------|
E|---------------------------------|

    D              C    G
E|--------------2------------3-2---|
B|------3-----3--------------------|
G|----2-----2-------------2--------|
D|--0-----0--------2----5----------|
A|-----------------3---------------|
E|---------------------------------|

D2     Am7         D2   
Ella juega en el sillon
         Am7     D2   
Esta descalza
     Am7        D2   
Algo sobrenatural
       Am7  D2
La desplaza

[Riff 1]

D2    Am7           D2   
Tiene forma de espiral
         Am7  D2   
Quien lo sabe
      Am7       D2   
Aguas silenciosas
       Am7   D2
Cubren su alma

[Riff 1]

    Am7      D2   
Poesia circular
       Am7  D2   
Pez espada
       Am7        D2   
Puedo verla de perfil
   Am7            D2
Andulandose en el mar

[Riff 1]

D2    Am7         D2  Am7  D2  Am7  D2  Am7
Como algas en el mar
D2    Am7         D2  Am7  D2  Am7  D2  Am7
Como algas en el mar
00:00 / 00:00
Outros vídeos desta música
Repetir
Outros vídeos desta música
187 exibições
    • ½ Tom
    • Am
    • Bbm
    • Bm
    • Cm
    • C#m
    • Dm
    • Ebm
    • Em
    • Fm
    • F#m
    • Gm
    • G#m
  • Adicionar à lista

Afinação da cifra

Afinador online

    0 comentários

    Ver todos os comentários

    Entre para o Cifra Club PRO

    Tenha acesso a benefícios exclusivos no App e no Site

    • Chega de anúncios

    • Mais recursos no app do Afinador

    • Atendimento Prioritário

    • Aumente seu limite de lista

    • Ajude a produzir mais conteúdo

    00:00 / 00:00

    Cifra Club Pro

    Aproveite o Cifra Club com benefícios exclusivos e sem anúncios
    Cifra Club Pro
    Aproveite o Cifra Club com benefícios exclusivos e sem anúncios
    OK