Cifra Club

Witching Metal

Sodom

Cifra: Principal (violão e guitarra)
tom: C
Witching Metal 


E||----------------------------------|----------------------|
B||----------------------------------|----------------------|
G||----------------------------------|----------------------|
D||----------------------------------|----------------------|
A||----------------------------------|----------------------|
E||--0-0-0-0-0-0-0-0-0-0-0-0-0-0-0-0-|--5----3--5----3------|


----------------------------------|----------------------|
----------------------------------|----------------------|
----------------------------------|----------------------|
----------------------------------|----------------------|
----------------------------------|----------------------|
--0-0-0-0-0-0-0-0-0-0-0-0-0-0-0-0-|--5----3--5----3------|

----------------------------------|----------------------|
----------------------------------|----------------------|
----------------------------------|----------------------|
----------------------------------|----------------------|
----------------------------------|----------------------|
--0-0-0-0-0-0-0-0-0-0-0-0-0-0-0-0-|--5----3--5----3------|

----------------------------------|----------------------|
----------------------------------|----------------------|
----------------------------------|----------------------|
----------------------------------|----------------------|
----------------------------------|----------------------|
--0-0-0-0-0-0-0-0-0-0-0-0-0-0-0-0-|--5----3--5----3------|

----------------------------------|----------------------|
----------------------------------|----------------------|
----------------------------------|----------------------|
----------------------------------|----------------------|
----------------------------------|----------------------|
--0-0-0-0-0-0-0-0-0-0-0-0-0-0-0-0-|--5----3--5----3------|

----------------------------------|----------------------|
----------------------------------|----------------------|
----------------------------------|----------------------|
----------------------------------|----------------------|
----------------------------------|----------------------|
--0-0-0-0-0-0-0-0-0-0-0-0-0-0-0-0-|--5----3--5----3------|

----------------------------------|----------------------|
----------------------------------|----------------------|
----------------------------------|----------------------|
----------------------------------|----------------------|
----------------------------------|----------------------|
--0-0-0-0-0-0-0-0-0-0-0-0-0-0-0-0-|--5----3--5----3------|

----------------------------------|----------------------|
----------------------------------|----------------------|
----------------------------------|----------------------|
----------------------------------|----------------------|
----------------------------------|----------------------|
--0-0-0-0-0-0-0-0-0-0-0-0-0-0-0-0-|--5----3--5----3------|

----------------------------------|----------------------------------|
----------------------------------|----------------------------------|
----------------------------------|----------------------------------|
----------------------------------|----------------------------------|
----------------------------------|----------------------------------|
--0-0-0-0-0-0-0-0-0-0-0-0-0-0-0-0-|--0-0-0-0-0-0-0-0-0-0-0-0-0-0-0-0-|

----------------------|----------------------------------|
----------------------|----------------------------------|
----------------------|----------------------------------|
----------------------|----------------------------------|
----------------------|----------------------------------|
--5----3--5----3------|--0-0-0-0-0-0-0-0-0-0-0-0-0-0-0-0-|

----------------------------------|----------------------|
----------------------------------|----------------------|
----------------------------------|----------------------|
----------------------------------|----------------------|
----------------------------------|----------------------|
--0-0-0-0-0-0-0-0-0-0-0-0-0-0-0-0-|--5----3--5----3------|

----------------------------------|----------------------------------|
----------------------------------|----------------------------------|
----------------------------------|----------------------------------|
----------------------------------|----------------------------------|
----------------------------------|----------------------------------|
--0-0-0-0-0-0-0-0-0-0-0-0-0-0-0-0-|--0-0-0-0-0-0-0-0-0-0-0-0-0-0-0-0-|

----------------------|----------------------------------|
----------------------|----------------------------------|
----------------------|----------------------------------|
----------------------|----------------------------------|
----------------------|----------------------------------|
--5----3--5----3------|--0-0-0-0-0-0-0-0-0-0-0-0-0-0-0-0-|

----------------------------------|----------------------|
----------------------------------|----------------------|
----------------------------------|----------------------|
----------------------------------|----------------------|
----------------------------------|----------------------|
--0-0-0-0-0-0-0-0-0-0-0-0-0-0-0-0-|--5----3--5----3------|

----------------------------------|----------------------------------|
----------------------------------|----------------------------------|
----------------------------------|----------------------------------|
----------------------------------|----------------------------------|
----------------------------------|----------------------------------|
--0-0-0-0-0-0-0-0-0-0-0-0-0-0-0-0-|--0-0-0-0-0-0-0-0-0-0-0-0-0-0-0-0-|

----------------------|----------------------------------|
----------------------|----------------------------------|
----------------------|----------------------------------|
----------------------|----------------------------------|
----------------------|----------------------------------|
--5----3--5----3------|--0-0-0-0-0-0-0-0-0-0-0-0-0-0-0-0-|

----------------------------------|----------------------|
----------------------------------|----------------------|
----------------------------------|----------------------|
----------------------------------|----------------------|
----------------------------------|----------------------|
--0-0-0-0-0-0-0-0-0-0-0-0-0-0-0-0-|--5----3--5----3------|

----------------------------------|----------------------------------|
----------------------------------|----------------------------------|
----------------------------------|----------------------------------|
----------------------------------|----------------------------------|
----------------------------------|----------------------------------|
--0-0-0-0-0-0-0-0-0-0-0-0-0-0-0-0-|--0-0-0-0-0-0-0-0-0-0-0-0-0-0-0-0-|

----------------------|----------------------------------|
----------------------|----------------------------------|
----------------------|----------------------------------|
----------------------|----------------------------------|
----------------------|----------------------------------|
--5----3--5----3------|--0-0-0-0-0-0-0-0-0-0-0-0-0-0-0-0-|

----------------------------------|----------------------------------|
----------------------------------|----------------------------------|
----------------------------------|----------------------------------|
----------------------------------|----------------------------------|
----------------------------------|----------------------------------|
--0-0-0-0-0-0-0-0-0-0-0-0-0-0-0-0-|--0-0-0-0-0-0-0-0-0-0-0-0-0-0-0-0-|

----------------------------------|----------------------------------|
----------------------------------|----------------------------------|
----------------------------------|----------------------------------|
----------------------------------|----------------------------------|
----------------------------------|----------------------------------|
--0-0-0-0-0-0-0-0-0-0-0-0-0-0-0-0-|--0-0-0-0-0-0-0-0-0-0-0-0-0-0-0-0-|

----------------------------------|----------------------------------|
----------------------------------|----------------------------------|
----------------------------------|----------------------------------|
----------------------------------|----------------------------------|
----------------------------------|----------------------------------|
--0-0-0-0-0-0-0-0-0-0-0-0-0-0-0-0-|--0-0-0-0-0-0-0-0-0-0-0-0-0-0-0-0-|

----------------------|----------------------------------|
----------------------|----------------------------------|
----------------------|----------------------------------|
----------------------|----------------------------------|
----------------------|----------------------------------|
--5----3--5----3------|--0-0-0-0-0-0-0-0-0-0-0-0-0-0-0-0-|

----------------------|----------------------------------|
----------------------|----------------------------------|
----------------------|----------------------------------|
----------------------|----------------------------------|
----------------------|----------------------------------|
--5----3--5----3------|--0-0-0-0-0-0-0-0-0-0-0-0-0-0-0-0-|

----------------------|----------------------------------|
----------------------|----------------------------------|
----------------------|----------------------------------|
----------------------|----------------------------------|
----------------------|----------------------------------|
--5----3--5----3------|--0-0-0-0-0-0-0-0-0-0-0-0-0-0-0-0-|

----------------------|----------------------------------|
----------------------|----------------------------------|
----------------------|----------------------------------|
----------------------|----------------------------------|
----------------------|----------------------------------|
--5----3--5----3------|--0-0-0-0-0-0-0-0-0-0-0-0-0-0-0-0-|

----------------------------------|----------------------|
----------------------------------|----------------------|
----------------------------------|----------------------|
----------------------------------|----------------------|
----------------------------------|----------------------|
--0-0-0-0-0-0-0-0-0-0-0-0-0-0-0-0-|--5----3--5----3------|

----------------------------------|----------------------------------|
----------------------------------|----------------------------------|
----------------------------------|----------------------------------|
----------------------------------|----------------------------------|
----------------------------------|----------------------------------|
--0-0-0-0-0-0-0-0-0-0-0-0-0-0-0-0-|--0-0-0-0-0-0-0-0-0-0-0-0-0-0-0-0-|

----------------------|----------------------------------|
----------------------|----------------------------------|
----------------------|----------------------------------|
----------------------|----------------------------------|
----------------------|----------------------------------|
--5----3--5----3------|--0-0-0-0-0-0-0-0-0-0-0-0-0-0-0-0-|

----------------------------------|----------------------|
----------------------------------|----------------------|
----------------------------------|----------------------|
----------------------------------|----------------------|
----------------------------------|----------------------|
--0-0-0-0-0-0-0-0-0-0-0-0-0-0-0-0-|--5----3--5----3------|

----------------------------------|----------------------------------|
----------------------------------|----------------------------------|
----------------------------------|----------------------------------|
----------------------------------|----------------------------------|
----------------------------------|----------------------------------|
--0-0-0-0-0-0-0-0-0-0-0-0-0-0-0-0-|--0-0-0-0-0-0-0-0-0-0-0-0-0-0-0-0-|

----------------------|----------------------------------|
----------------------|----------------------------------|
----------------------|----------------------------------|
----------------------|----------------------------------|
----------------------|----------------------------------|
--5----3--5----3------|--0-0-0-0-0-0-0-0-0-0-0-0-0-0-0-0-|

----------------------|----------------------------------|
----------------------|----------------------------------|
----------------------|----------------------------------|
----------------------|----------------------------------|
----------------------|----------------------------------|
--5----3--5----3------|--0-0-0-0-0-0-0-0-0-0-0-0-0-0-0-0-|

----------------------|----------------------------------|
----------------------|----------------------------------|
----------------------|----------------------------------|
----------------------|----------------------------------|
----------------------|----------------------------------|
--5----3--5----3------|--0-0-0-0-0-0-0-0-0-0-0-0-0-0-0-0-|

----------------------|----------------------------------|
----------------------|----------------------------------|
----------------------|----------------------------------|
----------------------|----------------------------------|
----------------------|----------------------------------|
--5----3--5----3------|--0-0-0-0-0-0-0-0-0-0-0-0-0-0-0-0-|

----------------------|----------------------------------|
----------------------|----------------------------------|
----------------------|----------------------------------|
----------------------|----------------------------------|
----------------------|----------------------------------|
--5----3--5----3------|--0-0-0-0-0-0-0-0-0-0-0-0-0-0-0-0-|

----------------------|
----------------------|
----------------------|
----------------------|
----------------------|
--5----3--5----3------|
00:00 / 00:00
Outros vídeos desta música
Repetir
Outros vídeos desta música
Composição de Sodom
Colaboração e revisão:
  • Junior Jr
1.070 exibições
    • ½ Tom
    • A
    • Bb
    • B
    • C
    • Db
    • D
    • Eb
    • E
    • F
    • F#
    • G
    • Ab
  • Adicionar à lista

    0 comentários

    Ver todos os comentários

    Entre para oCifra Club PRO

    Tenha acesso a benefícios exclusivos no App e no Site

    • Chega de anúncios

    • Prioridade de compra em lançamentos

    • Mais recursos no app do Afinador

    • Atendimento Prioritário

    • Descontos nos produtos Cifra Club

    • Ajude a produzir mais conteúdo

    00:00 / 00:00

    Cifra Club Pro

    Aproveite o Cifra Club com benefícios exclusivos e sem anúncios
    Cifra Club Pro
    Aproveite o Cifra Club com benefícios exclusivos e sem anúncios
    OK