Cifra Club

Aprenda

Tainted Love

Soft Cell

Cifra: Principal (violão e guitarra)
tom: Bb
Tabbed by Angel_Fires

It's normally synth, but I've arranged it for guitar.
Standard Tuning.


e------------------|------------------|
B---------4-4-----3|--------4-4------3|
G-0-0-3-3----3/5---|0-0-3-3-----3/5---|
D------------------|------------------|
A------------------|------------------|
E------------------|------------------|

Chorus:
e------------------|------------------|------------------|------------------|
B------------------|------------------|-4----------------|1-----------------|
G-0----------------|-3----------------|------------------|------------------|
D------------------|------------------|------------------|------------------|
A------------------|------------------|------------------|------------------|
E------------------|------------------|------------------|------------------|

e------------------|
B------------------|
G-0----------------|
D------------------|
A------------------|
E------------------|

There you go, super easy song, hope you have fun with it!
Composição de Ed Cobb
13.367 exibições
  • Simplificar cifra
    • ½ Tom
    • A
    • Bb
    • B
    • C
    • Db
    • D
    • Eb
    • E
    • F
    • F#
    • G
    • Ab
  • Adicionar à lista

    0 comentários

    Ver todos os comentários

    Conseguiu tocar?

    0 Tocaram 0 Ainda não

    Grave um vídeo tocando Tainted Love e nos envie!

    00:00 / 00:00
    outros vídeos desta música
    repetir qualidade Automático
    Outros vídeos desta música
    00:00 / 00:00
    Automático

    Cifra Club Pro

    Aproveite o Cifra Club com benefícios exclusivos e sem anúncios
    Cifra Club Pro
    Aproveite o Cifra Club com benefícios exclusivos e sem anúncios
    OK