Cifra Club

Light The Torch

Soilwork

Cifra: Principal (violão e guitarra)
Selo Cifra Club: esta cifra foi revisada para atender aos critérios oficiais da nossa Equipe de Qualidade.
tom: A
Intro:
  Riff A
E|------------------------------|
B|------------------------------|
G|------------------------------| Play 4x
D|------------------------------|
A|----------------------------3-|
E|-5-4-0-0-1-0-(0)-5-4-0-0-1----|
      ^ ^      ^      ^ ^
  Riff B
E|------------------------|------------------------|
B|------------------------|------------------------|
G|------------------------|------------------------| Then play Riff a 2x
D|-------9--------------9-|-------6--------------6-|
A|-7-7-7-7--7-7-7-7-7-5-7-|-4-4-4-4--4-4-4-4-4-4-4-|
E|-5-5-5-5--5-5-5-5-5-5-5-|-2-2-2-2--2-2-2-2-2-2-2-|
 
There is no guitar for a little while, then the quiet guitar goes:
Verse:
  Riff c
E|-----------------|---------------|------------------|---------------|
B|-----------------|---------------|------------------|---------------|
G|-----------------|---------------|------------------|---------------|
|-2/4-4-4-4h5p4-4-|-4-4-4-4-4-4-4-||-2/4-4-4-4h5p4-4-|-4-2-2-2-0-0-0-|
E|-----------------|---------------|------------------|---------------|
B|-----------------|---------------|------------------|---------------|
      ^ ^             ^ ^   ^ ^          ^ ^
E|-----------------|---------------|------------------|---------------|
B|-----------------|---------------|------------------|---------------|
G|-----------------|---------------|------------------|---------------|
|-2/4-4-4-4h5p4-4-|-4-4-4-4-4-4-4-||-2/4-4-4-4h5p4-4-|-4-2-2-2-------|
|-----------------|---------------|------------------|---------------|
|-----------------|---------------|------------------|-----------10/-|
      ^ ^             ^ ^   ^ ^          ^ ^
  Riff D
E|---------------------------------|----------------------------------|
B|-------------------------4/6-6-6-|----------------------------------|
G|---------------------------------|----------------------------7-7-7-|
D|-------------------------2/4-4-4-|----------------------------7-7-7-|
A|---------------------------------|----------------------------5-5-5-|
E|-0h2-2-2-3p2-0h2-0h2-2-2---------| |-0h2-2-2-3p2-0h2-0h2-2-2-2-5-5-5-|
 Play 2x
Then go back to Riff B and A (the chorus) again, then C and D, then
the chorus agian, and then you're left with this:
 
Bridge:
  Riff E
E|-----------------------------|
B|-----------------------------|
G|-----------------------------| Play that a couple of times
D|-X-X-6--6-6-X-6-X-4--6-6-X-6-|
A|-X-X-6--6-6-X-6-X-4--6-6-X-6-|
E|-X-X-4--4-4-X-4-X-4--4-4-X-4-|
 
Then
  Riff F
E|-----------------------------------------------------------|
B|-X-X-8--8-8-X-8-X-8--8-8-X-8-X-8--8-8-X-8-X-11-11--11-8-8--|
G|-X-X--------X---X--------X---X--------X---X----------------|
D|-X-X-6--6-6-X-6-X-6--6-6-X-6-X-6--6-6-X-6-X-9---9--9--6-6--|
A|-----------------------------------------------------------|
E|-----------------------------------------------------------|
This Riff should played with a second guitar who plays Riff E at the
same time.
 
I didn't tab the solo because I can't play solos, let alone tab them.
 
Then switch back to Riff E, and when you switch back Riff F, replace
the octaves on the 9th fret with octave on the 6th fret. (It should
be easy to distinguish when to play the octave on the 9th fret.
 
The very end of the song ends with:
 
E|---------|
B|---------|
G|---------|
D|---------|
A|---3-----|
E|-1---1-0-|
Outros vídeos desta música
    25 exibições
      • ½ Tom
      • A
      • Bb
      • B
      • C
      • Db
      • D
      • Eb
      • E
      • F
      • F#
      • G
      • Ab
    • Adicionar à lista

    Afinação da cifra

    Afinador online

      0 comentários

      Ver todos os comentários

      Entre para o Cifra Club PRO

      Tenha acesso a benefícios exclusivos no App e no Site

      • Chega de anúncios

      • Badges exclusivas

      • Mais recursos no app do Afinador

      • Atendimento Prioritário

      • Aumente seu limite de lista

      • Ajude a produzir mais conteúdo

      Cifra Club Pro

      Aproveite o Cifra Club com benefícios exclusivos e sem anúncios
      Cifra Club Pro
      Aproveite o Cifra Club com benefícios exclusivos e sem anúncios
      OK