Cifra Club

Decide You're Gone

SOJA

Cifra: Principal
exibições 26.581
Tom: G
Intro: G  D  Em  C

       G                       D
E|---------------------------------------------|
B|-----------12-12-10-------------------12-10--|
G|-------12------------12------------11--------|
D|----12--------------------------12-----------|
A|-10--------------------------12--------------|
E|-------------------------10------------------|

       Em                 C
E|--------7-7---------------------------------|
B|------------10-8-10----------------12-10-8--|
G|-----9----------------------9-9/12----------|
D|---9---------------------10-----------------|
A|-7--------------------10--------------------|
E|--------------------8-----------------------|

       G                       D
E|-------------------------10------------------------|
B|-----------12-12-10-------------------12-10/1210--|
G|-------12------------12------------11--------------|
D|----12--------------------------12-----------------|
A|-10--------------------------12--------------------|
E|-------------------------10------------------------|

       Em                 C
E|--------7-7--------------------------|
B|------------10-8-10-----------12-10--|
G|-----9----------------------9--------|
D|---9---------------------10----------|
A|-7--------------------10-------------|
E|--------------------8----------------|

Interludio Trompete 2x: G  B  Em  C

      G         B             Em     C
E|----7--------------------------------------|
B|------8---10--10/1210--8------------------|
G|--7-----7-----------------7--7/9--7--------|
D|------------------------------------10--9--|
A|-------------------------------------------|
E|-------------------------------------------|

      G         B             Em    C
E|----7----------------------7--8--10--8-----|
B|------8---10--10/1210--8------------------|
G|--7-----7----------------------------------|
D|-------------------------------------------|
A|-------------------------------------------|
E|-------------------------------------------|

   G                           D
1- I used to think that I cold go this all alone
             Em                     C
   I used to think I could do it by myself, But I,
   G                           D
   I found another one like me walking alone
                 Em                              C
   I don't think she stands a chance with no one else, but anyway...

   G                 D
2- I'll be here, and you'll be there and
   Em                C
   we'll be by the phone (and you know)
   G                D
   I'll be sitting, watching you waiting
       Em                  C
   for you to decide you're, to decide you're gone

Interludio Trompete 2x: G  D  Em  C

   G                           D
1- And when I'm calling if I'm calling someone else
            Em                        C
   it don't feel the same as when I'm calling you, I meat it
   G                         D
   and in a world I more and more can't understand
               Em                          C
   It would be hard to lose something that I do, but anyway...

   G                 D
2- I'll be here, and you'll be there and
   Em                C
   we'll be by the phone (and you know)
   G                D
   I'll be sitting, watching you waiting
       Em                  C     B
   for you to decide you're, to decide you're gone

Solo 2x: Em  B  C  B

      Em               B             C          B
E|---------------------------------------------------|
B|-8-7-8-10-8-7-8--8-7-------7-----------------------|
G|---------------------9-8-8---9----7/9-7/9----9-8---|
D|-------------------------------10---------9--9-9---|
A|---------------------------------------------------|
E|---------------------------------------------------|

      Em               B             C                           B
E|-------------------------------------------------------7-8-10--7/87--7/87--7/87--|
B|-8-7-8-10-8-7-8--8-7-------7---------------7-8--7-8-10------------------------------|
G|---------------------9-8-8---9---------7-9------------------------------------------|
D|-------------------------------10-9/10----------------------------------------------|
A|------------------------------------------------------------------------------------|
E|------------------------------------------------------------------------------------|

Interludio Trompete 2x: G  D  Em  C

   G                              D
1- So watch the days cuz they all turn into the night,
                 Em                        C
   and watch the sun cuz it turns into the moon
   G                             D
   and in a world that wont stop turning us around
               Em                   C
  at least we know who we can turn to... now

   G                 D
2- I'll be here, and you'll be there and
   Em                C
   we'll be by the phone (and you know)
   G                D
   I'll be sitting, watching you waiting
       Em                  C
   for you to decide you're, to decide, oh to decide!

   G                 D
2- I'll be there, and you'll be here and
   Em                C
   we'll be by the phone (oh yea)
   G                           D
   And I'll be sitting while I watch, I'll be watching
           Em                                 C                                   G
   while I wait for you to decide that you're gone, for you to decide that you're gone

                             D
1- Is it too much, is it too far, is it too long
                  Em                                  C                                   G
   and now you're gone and I'll be here and you'll be there and you'll decide that you're gone
                                 D
   Is it too much, and is it too far, and is it too long
            Em                           C                    G
   and walk on and you'll decide you're, you'll decide you're gone
Acordes para:
    Colaboração e revisão:
    • Kevin Moreno
    • André Cordeiro
    • Julio Yulita

    0 comentários

      mostrar mais comentários

      Conseguiu tocar?

      7tocaram0ainda não

      Grave um vídeo tocando Decide You're Gone e mande pra gente!

      00:00 / 00:00
      outros vídeos desta música
      repetirqualidadeautomática
      Outro vídeos desta música
        00:00 / 00:00
        automática
        OK