Cifra Club

Not Done Yet

SOJA

Tab de baixo: Principal
exibições 4.569
int = versos

G|---------------------------------------------------------
D|---------------------------------------------------------
A|---2~---2-2-2----------------5~---5-5-5------------------
E|----------------3~---3-3-3----------------5~---5-5-5-----

G|---------------------------------------------------------
D|---------------------------------------------------------
A|----------------2~---------------------------------------
E|---3~------------------------3~-----------5~-------------

G|---------------------------------------------------------
D|---------------------------------------------------------
A|----------------2~----------------------------4-4-4-4-4--
E|---3~------------------------3~--------------------------

ref

G|---------------------------------------------------
D|---------------------------------------------------
A|---2~---2--2---------------5~---5-5----------------
E|---------------3~---3--3--------------5~---5--5----   (x2)  E|---/10


Colaboração e revisão:
  • Pedro

0 comentários

    mostrar mais comentários

    Conseguiu tocar?

    0tocaram0ainda não

    Grave um vídeo tocando Not Done Yet e mande pra gente!

    00:00 / 00:00
    outros vídeos desta música
    repetirqualidadeautomática
    Outro vídeos desta música
      00:00 / 00:00
      automática
      OK