Cifra Club

Thunderstorms

SOJA

Cifra: Principal (violão e guitarra)
Tom: C
   Em    Bm       Am7             Bm7
I don't know one thing about you not
   Em      Bm7        Am7    Bm7
knowing a thing about me
 Em        Bm       Am7
Cuz we drop down into all your
    Bm7          Em       Bm7
thunderstorms and clain it's not
        Am7       Bm7
your lightning
            Em               Bm7
So now the fries gone in my eyes
 Am7        Bm7
they grow cold for a while
 Em          Bm7      Am7
and I'dont feel your heat
  Em          Bm7
These words have been said
 Am7             Bm7
over and around it, but
Em       Bm7       Am7             Bm7
I don't hear no talking, you're talking
  C                 Em
I'll be stopping, I'll be starting,
 C                Em      G
I'll be wondering why we don't
              C
know what we do...
 C                  Em
I'm a be the same, even if I'm

walking by my self
 C    Em             G
I'm just wondering why...

(solinho)

I never ever saw us clearly,
and clearly we're both to blame
But silence and progress         
were my thing                 
and your thing was calling
my name
Now you can see your whole
life without me
I'm quietly in mine without You
and the phone calls offsetting
them, there's some things what
I guess I can't do, too...
So my name remains pisoner
trapped in my world that's gone.

 C
And I'm the only one
Em
who still lives here,
 C            Em       G     C
and I've got all the lights off
 C
Now you can stop and
Em
visit me in my cell
 C        Em      C      G
and we can talk if were
C
got the time
Em
then you can start to
C    Em      G
gon on your way

Cuz I believe I've found mine.
Solo:
E|-------------------------------|-----------------------------|-------------------------------|-------------|
A|-------------------------------|-----------------------------|-------------------------------|-------------|
D|-------------------------------|-----------------------------|-------------------------------|-------------|
G|----4--4-2------------------2/4|-4--4-2-------------------2/4|-4--4-2-------------------2/4--|-4-2---------|
B|----5--5-3--0--3/5--5-3-0---3/5|-5--5-3--0--3/5--6\5-3-0--3/5|-5--5-3--0--3/5--3-x-3-0--3/5--|-5-3---0-3/5-|
E|------------0--3/5--5-3-0------|---------0--3/5--6\5-3-0-----|---------0--3/5--3-x-3-0-------|-------0-3/5-|

E|-------------------------|-------------------------|--------------------------------------------------------|
A|-------------------------|-------------------------|--------------------------------------------------------|
D|-------------------------|-------------------------|--------------------------------------------------------|
G|-------------------------|-------------------------|---------------------------9-------------------------9-9|
B|-5-8-10-10b12--8b10------|-5-8-10-10b12--8b10r8b10-|-5-8-10-10b12-12r10-8b10r8---10b12-8-10-8-10b12-8b10----|
E|---------------------3p0-|-------------------------|--------------------------------------------------------|
exibições 36.764
Acordes para:
    Composição: SOJA Colaboração e revisão:
    • anael chagas

    0 comentários

    mostrar mais comentários

    Conseguiu tocar?

    6 tocaram 4 ainda não

    Grave um vídeo tocando Thunderstorms e mande pra gente!

    00:00 / 00:00
    outros vídeos desta música
    repetir qualidade Automático
    Outros vídeos desta música
    00:00 / 00:00
    Automático
    OK