Cifra Club

Paintbrushes

Something For Kate

Cifra: Principal (violão e guitarra)
tom: G
(verso)
E|-------------|-----------------|--------------
B|-------------|-----------------|--------------
G|-4-5---------|-4-5-------------|--------------
D|-2-3---5-----|-2-3---5---------|--------------
A|-------3---5-|-------3---5---7-|--------------
E|-----------3-|-----------3---5-|--------------

E|-------------|-----------------|--------------
B|-------------|-0---------------|--------------
G|-4-5---------|-2---------------|--------------
D|-2-3---5-----|-2---------------|--------------
A|-------3---5-|-----------------|--------------
E|-----------3-|-----------------|--------------

(refrão)
E|-------------5-------3-------0-------------
B|-2---3---5-------5-------3-------1---------
G|-------------------------------------------
D|-------------0-----------------------------
A|-0---------------------------3-------------
E|---------------------1---------------------

E|--------------------------------------------------
B|-2---3---5----------------------------------------
G|-------------2---4---2---2---4---2---2---4---2----
D|--------------------------------------------------
A|-0------------------------------------------------
E|-------------3-----------0-----------3------------

E|-0---0---0------------------------------------
B|-3---6---8------------------------------------
G|-2---5---7------------------------------------
D|-0---0---0------------------------------------
A|-0---0---0------------------------------------
E|----------------------------------------------

(verso 2)
Em F C G
Em F C G Asus
Em F C G
Asus
A7sus

     Asus   A7sus 
     Asus   A7sus
E|--0------0------
B|--0------0-----
G|--2------0-----
D|--2------2-----
A|--0------0-----
E|--0------0-----

(refrão 2)
E|-0---0---0---5---2---1---0---------------------
B|-2---3---5---3---5---1---1----------------------
G|-2---2---2---2---2---2---0---------------------
D|-2---2---2---0---0---3---2---------------------
A|-0---0---0---0---0---3---3----------------------
E|-0---0---0-----------1-----------------------

E|-0---0---0---------------------------------------
B|-2---3---5---0---0---0---0---0---0---0---0---0---
G|-2---2---2---2---4---2---2---4---4---2---4---2---
D|-2---2---2---0---0---0---2---2---2---0---0---0---
A|-0---0---0---2---2---2---2---2---2---2---2---2---
E|-0---0---0---3---3---3---0---0---0---3---3---3---

E|-0---0-0---2---2---3-------------------3---2-0----
B|-2---3-2---3---2---3-------------------3---3-3---
G|-2---2-2---4---4---0-------------------0---0-0---
D|-2---2-2---4---4---0-------------------0---0-0---
A|-0---0-0---2---2---2-------------------2---------
E|-0---0-0-----------3-2-3-3---7-5-7-7---3---3-3---
00:00 / 00:00
Outros vídeos desta música
Repetir
Outros vídeos desta música
Compositor não encontrado.
Colaboração e revisão:
  • Jefferson Sousa
35 exibições
    • ½ Tom
    • A
    • Bb
    • B
    • C
    • Db
    • D
    • Eb
    • E
    • F
    • F#
    • G
    • Ab
  • Adicionar à lista

    0 comentários

    Ver todos os comentários

    Entre para oCifra Club PRO

    Tenha acesso a benefícios exclusivos no App e no Site

    • Chega de anúncios

    • Prioridade de compra em lançamentos

    • Mais recursos no app do Afinador

    • Atendimento Prioritário

    • Descontos nos produtos Cifra Club

    • Ajude a produzir mais conteúdo

    00:00 / 00:00

    Cifra Club Pro

    Aproveite o Cifra Club com benefícios exclusivos e sem anúncios
    Cifra Club Pro
    Aproveite o Cifra Club com benefícios exclusivos e sem anúncios
    OK