Cifra Club

Aprenda

A Puro Dolor

Son By Four

Cifra: Principal (violão e guitarra)
tom: C
[Intro] C  G  Am  Em  
        F  C  G

E|------------------------------------------|
B|-5~--8-8-8-6-5h6p5------------------------|
G|-------------------7-5----5-7-7/9-7-5-----|
D|------------------------7-----------------|
A|------------------------------------------|
E|------------------------------------------|

E|------------------------------------------|
B|--------------------------5-5/6-5---------|
G|-----5-5-----5-5------5-7---------7h9p7-5-|
D|-5-7-----7-5------2-3---------------------|
A|------------------------------------------|
E|------------------------------------------|

[Primeira Parte]
  
    C                   G               Am
Perdona si te estoy llamando en este momento
               Em                 F
Pero me hacia falta escuchar de nuevo
                  C                F   G
Aunque sea un instante tu respiracion

[Riff]

E|------------------------------------------|
B|----------5-6-8---------------------------|
G|---4-5-7----------------------------------|
D|-7----------------------------------------|
A|------------------------------------------|
E|------------------------------------------|

    C                     G
Disculpa se que estoy violando
             Am
Nuestro juramento
                 Em                       F
Se que estas con alguien, que no es el momento
                 C                 F   G
Pero hay algo urgente que decirte hoy

[Pré-Refrão]

          Am        Em        F     G
Estoy muriendo, muriendo por verte
      Am         Em           F     G
Agonizando, muy lento y muy fuerte

[Refrão]

 C        G               Am
Vida, devuelveme mi fantasia
     Em                F
Mis ganas de vivir la vida
    C         F    G
Devuelveme el aire
        C        G                 Am
Carino mio, sin ti yo me siento vacio
     Em                F
Las tardes son un laberinto
       C         F
Y las noches me saben
   G      C
A puro dolor

[Solo] G  Am  Em  F  G

E|------------------------------------------|
B|-5~--8-8-8-6-5h6p5------------------------|
G|-------------------7-5------5-7-7/9-7-5---|
D|------------------------7-7---------------|
A|------------------------------------------|
E|------------------------------------------|

E|------------------------------------------|
B|-------------------8-6h8p6-5--------------|
G|-----7-7-----4-5-7-----------7h9p7-5------|
D|-5-7-----5-7------------------------------|
A|------------------------------------------|
E|------------------------------------------|

[Segunda Parte]

     C                G               Am
Quisiera decirte que hoy estoy de marvilla 
                  Em               F
Que no me ha afectado lo de tu partida 
             C              F      G 
Pero con un dedo no se tapa el sol

[Riff]

E|------------------------------------------|
B|----------5-6-8---------------------------|
G|---4-5-7----------------------------------|
D|-7----------------------------------------|
A|------------------------------------------|
E|------------------------------------------|

[Pré-Refrão]

          Am        Em        F     G
Estoy muriendo, muriendo por verte
      Am         Em           F     G
Agonizando, muy lento y muy fuerte

[Refrão]

 C        G               Am
Vida, devuelveme mi fantasia
     Em                F
Mis ganas de vivir la vida
    C         F    G
Devuelveme el aire
        C        G                 Am
Carino mio, sin ti yo me siento vacio
     Em                F
Las tardes son un laberinto
       C         F
Y las noches me saben
   G      C
A puro dolor

[Solo] G  Am  Em  
       F  C  G  A

E|----------------7-8-8-7-7-----------------|
B|-4/5-8-----8-10-----------10-8-8-6-6-5-5--|
G|-------7-5-------------------------------5|
D|------------------------------------------|
A|------------------------------------------|
E|------------------------------------------|

[Refrão]

 D        A               Bm
Vida, devuelveme mi fantasia
     F#m                G
Mis ganas de vivir la vida
    D         G    A
Devuelveme el aire
        D        A                 Bm
Carino mio, sin ti yo me siento vacio
     F#m                G
Las tardes son un laberinto
       D         G
Y las noches me saben
   A      
A puro dolor

 D        A               Bm
Vida, devuelveme mi fantasia
     F#m                G
Mis ganas de vivir la vida
    D         G    A
Devuelveme el aire

[Terceira Parte]
  
    D                   A               Bm
Perdona si te estoy llamando en este momento
               F#m                 G
Pero me hacia falta escuchar de nuevo
                  D   A  D
Aunque sea un instante     tu respiracion
Composição de João Higino Filho Músico
Colaboração e revisão:
  • Thiago Almeida
  • Cristian Rodriguez
22.241 exibições
    • ½ Tom
    • A
    • Bb
    • B
    • C
    • Db
    • D
    • Eb
    • E
    • F
    • F#
    • G
    • Ab
  • Adicionar à lista

    0 comentários

    Ver todos os comentários

    Conseguiu tocar?

    2 Tocaram 1 Ainda não

    Grave um vídeo tocando A Puro Dolor e nos envie!

    00:00 / 00:00
    outros vídeos desta música
    repetir qualidade Automático
    Outros vídeos desta música
    00:00 / 00:00
    Automático

    Cifra Club Pro

    Aproveite o Cifra Club com benefícios exclusivos e sem anúncios
    Cifra Club Pro
    Aproveite o Cifra Club com benefícios exclusivos e sem anúncios
    OK