Cifra Club

Siega

Sondaschule

Cifra: Principal (violão e guitarra)
tom: Bm
(intro)

E|-5-5-5-5-5-5-55-5-5-55-5-5-33-|
B|-5-5-5-5-5-5-55-5-5-55-5-5-33-|
G|-5-5-5-5-5-5-55-5-5-55-5-5-33-|
D|------------------------------|
A|------------------------------|
E|------------------------------|

E|--------------------------------------------------------------------|
B|--------------------------------------------------------------------|
G|---9---6-7-6-------7----6-7-6------11----6-7-6------7---6-7----6-7--|
D|-7---7-------7--5-----7-------7--9-----7-------7--5----7-----7------|
A|--------------------------------------------------------------------|
E|--------------------------------------------------------------------|
00:00 / 00:00
Outros vídeos desta música
Repetir
Outros vídeos desta música
Compositor não encontrado.
Colaboração e revisão:
  • Dilson Cassaro
28 exibições
    • ½ Tom
    • Am
    • Bbm
    • Bm
    • Cm
    • C#m
    • Dm
    • Ebm
    • Em
    • Fm
    • F#m
    • Gm
    • G#m
  • Adicionar à lista

    0 comentários

    Ver todos os comentários

    Conseguiu tocar?

    0 Tocaram 0 Ainda não

    Grave um vídeo tocando Siega e nos envie!

    00:00 / 00:00

    Cifra Club Pro

    Aproveite o Cifra Club com benefícios exclusivos e sem anúncios
    Cifra Club Pro
    Aproveite o Cifra Club com benefícios exclusivos e sem anúncios
    OK