Cifra Club

Dirty Boots

Sonic Youth

Cifra: Principal (violão e guitarra)
tom: G
Tuning: EGDGED - (thurston) lee plays in EEBBEF# but I have'nt tabbed
                            his part yet

Intro:
-----5-------7-------2-------4--------|
--------------------------------------|
--------------------------------------| x4
-5-5---5-7-7---7-2-2---2-4-4---4------|
--------------------------------------|
--------------------------------------|

Next part goes:
-------------------------------|
-------------------------------|
-------------------99-77-------|  x4
-7/9-999-99--7/9-9-77-55-------|
-7/9-999-99--7/9-9-------------|
-0/0-000-00--0/0-0-------------|

Verse: chords only
----------------------------------|
----------------------------------|
---4---7---2---5------------------|
----------------------------------|
---4---7---2---5------------------|
----------------------------------|

Chorus: chords only
----------------------------------
----------------------------------
--9---7----------2-------0--------
--9---7----------2-------0--------
--9---7----------2-------0--------
--0---0----------0-------3--------

-----------------------------|-----|---------|
-----------------------------|-----|---------|
--9---7----------2----4--0---|-----|---------|
--9---7----------2----4--0---|--9--|-(9)/\---|
--9---7----------2----4--0---|--9--|-(9)/\---|
--0---0----------0----0--3---|--0--|-(0)/\---|
                                 \At end of chorus strum this chord.

Play another verse and chorus and after that play:
-------------------------------------------------------------------
-------------------------------------------------------------------
-------------------------------------------------------------------
-14-13-12-----------/17171717171717\-/191919191919\-/212121212121--
-------------------------------------------------------------------
-------------------------------------------------------------------
After this hit 21 on the d string a couple of times.


Dirty boots part:
--------------------------------------|
--------------------------------------|
-7-9--9------x-x-x--9-9--7-7----------|   x4
-7-9--9\/----x-x-x--7-7--5-5----------|
-7-9--9\/----x-x-x--------------------|
-0-0--0\/----x-x-x--------------------|

noisy part:
------------------------------------------------------------------
------------------------------------------------------------------
-7-9-9-9-9b--7-9-9-14-14-12-12--7-9-9-9-9b-7-9-12--14/19-19-19-19-
------------------------------------------------------------------
------------------------------------------------------------------
------------------------------------------------------------------

----------------------------------
----------------------------------
--6/77777666-6/77777666-3/5-55-5-- use whammy bar on last note
----------------------------------
----------------------------------
----------------------------------

next bit 1:
----------------------------------
----------------------------------
---9---x-x-x--12----12-12-12------
---9---x-x-x--12----12-12-12------ x4
---9---x-x-x--12----12-12-12------
---0-----------0-----0--0--0------

----------------------------------
----------------------------------
----------------------------------
-11/12-12-12-12-12-11-11-11------- x4
----------------------------------
----------------------------------
play next bit 1 twice but one the second time only play the
first riff twice.


next bit:
randomly stum the notes of these chords
-2-22-222-2/5-55-555-5/7-77-777-7/9-99-999----
----------------------------------------------
----------------------------------------------
-2-22-222-2/5-55-555-5/7-77-777-7/9-99-999----
----------------------------------------------
----------------------------------------------

---------------------------------------------------------------
-5/7-77777-555-5/7-77777-555-/10--10101010--8-8-8-101010101010-
---------------------------------------------------------------
-7/9-99999-777-5/7-99999-777-/12--12121212-101010-121212121212-
---------------------------------------------------------------
---------------------------------------------------------------

-2-22-222-2/5-55-555-5/7-77-777-7/9-99-999----
---------------------------------------------- after playing this
---------------------------------------------- strum last chord for
-2-22-222-2/5-55-555-5/7-77-777-7/9-99-999---- few bars
----------------------------------------------
----------------------------------------------

then play intro again gradually strumming it faster and noisier.


this closing bit is easierly heard live on the dirty boots single.
--12~--|-------------12-------|
-------|----------------------|  play this a couple of times and
-------|----------------------|  use whammy bar on the high 12
-------|-12--12-12------------|
-------|----------------------|
-------|----------------------|

--12121212/14---1414141414\12-12---121212-9---9997---7----5-| bend 5
------------------------------------------------------------| with
------------------------------------------------------------| whammy
------------------------------------------------------------| bar
------------------------------------------------------------|
------------------------------------------------------------|

---



DIRTY BOOTS off GOO by SONIC YOUTH


tUnInG: EEBBEF#

lR:

intro:                                          verse:           chorus:
F#|-----------------------------------|-------------|--------------------------
E-|-----------------------------------|-------------|--------------------------
B-|-10^12--10-/12--10-/12--10-10-/12--|-------------|--------------------------
B-|-10^12--10-/12--10-/12--10-10-/12--|-12-15-10-13-|-12-10-5-3-2--12-10-5-7-3- x2
E-|-10^12--10-/12--10-/12--10-10-/12--|-12-15-10-13-|-12-10-5-3-2--12-10-5-7-3-
E-|--0--------------------------------|-12-15-10-13-|--0-10-5-3-2-- 0-10-5-7-3-

bridge:                                            ...I got some dirty boots...
F#|-----------15 b17-----------------------------|--------------
E-|----12 b14------------------------------------|--------------
B-|-0----------------- then some very high notes-|-10 /12-------
B-|-0----------------- which I can't define... --|-10 /12--5-3-- then lots 
E-|-0--------------------------------------------|-10 /12--5-3-- of noise!!!
E-|-0--------------------------------------------|- 0------5-3--

instrumental part after noise:
  1st sequence    2nd sequence                     3rd sequence
F#|--------------|--------------------|         |------------------------------------
E-|--------------|-14 /15--\14 /15 ---|repeat   |-14 /15 \14 /15 /17 /19 \17 \15 \14-
B-|-12-x-x-15 ---|-14 /15--\14 /15 ---|the      |-14 /15 \14 /15 /17 /19 \17 \15 \14-
B-|-12-x-x-15 x4 |-14 /15--\14 /15 x2 |first    |-14 /15 \14 /15 /17 /19 \17 \15 \14-
E-|-12-x-x-15 ---|-14 /15--\14 /15 ---|sequence |-14 /15 \14 /15 /17 /19 \17 \15 \14-
E-|- 0-----------|--------------------|         |------------------------------------

F#|------------------------------------------------------------17 hold --
E-|------------------------------------------------------------19 this --
B-|-12--10-12--12--10 /12 \10 /12 \10-8-10-8-12-14-15-17-19-20-17 chord -
B-|-12--10-12--12--10 /12 \10 /12 \10-8-10-8-12-14-15-17-19-20-17--------
E-|-12--12-12--14----------------------------12-14-15-17-19-20-----------
E-|-12----------------------------------------0--------------------------

outro:                     last chord:
F#|---------17--------|--0--
E-|-----17----17--17--|--0--
B-|---15--15----15----|--8--
B-|-15----------------|--8--
E-|-------------------|--0--
E-|-------------------|--0--
        repeat
Composição de Sonic Youth
Colaboração e revisão:
  • rogerio
5.470 exibições
    • ½ Tom
    • A
    • Bb
    • B
    • C
    • Db
    • D
    • Eb
    • E
    • F
    • F#
    • G
    • Ab
  • Adicionar à lista

    0 comentários

    Ver todos os comentários

    Conseguiu tocar?

    1 Tocaram 0 Ainda não

    Grave um vídeo tocando Dirty Boots e nos envie!

    00:00 / 00:00
    Outros vídeos desta música
    Repetir Qualidade Automático
    Outros vídeos desta música
    00:00 / 00:00
    Automático

    Cifra Club Pro

    Aproveite o Cifra Club com benefícios exclusivos e sem anúncios
    Cifra Club Pro
    Aproveite o Cifra Club com benefícios exclusivos e sem anúncios
    OK