Cifra Club

Aprenda

Incinerate

Sonic Youth

Cifra: Principal (violão e guitarra)
tom: G
Versão simplificada:

Intro: D#

G:|--8----|
D:|--8----|
A:|--6----|

e:|----------------------| 
B:|----------------------|
G:|----------------------|
D:|----------------------|
A:|--6-6-6-6-------------|
E:|--6-6-6-6-------------|

2x
e:|-8--6--8-----8--6--8--| 
B:|----------6-----------|
G:|----------------------|
D:|----------------------|
A:|----------------------|
E:|----------------------|

e:|----------------------| 
B:|----------------------|
G:|-5----7-7--8-8--7-7---|
D:|----------------------|
A:|----------------------|
E:|----------------------|

Repete

Dedilhado nos Power chords de C e Bb e vai até a ponte 'Incinerate'

"Incinerate...Incinerate..." 4x

e:|----------------------| 
B:|----------------------|
G:|-----5-7--5-5---------|
D:|-5-8-------8-5--------|
A:|----------------------|
E:|----------------------|

Refrão base: C - Bb

SOLO:

Base do solo:

e:|-----3-4-6--4-3------| 
B:|-4---3-4-6--4-3---4--|
G:|-3----------------3--|
D:|---------------------|
A:|---------------------|
E:|---------------------|

Outra guitarra (sempre com bend):

e:|-----------------------------------------------------------------------------| 
B:|-666666666---888888888---101010101010---1212121212-151515151515---1717171717-|
G:|-----------------------------------------------------------------------------|
D:|-----------------------------------------------------------------------------|
A:|-----------------------------------------------------------------------------|
E:|-----------------------------------------------------------------------------|


Repete desde o início até o 'Incinerate...' 8x
Composição de Sonic Youth
Colaboração e revisão:
  • Heitor Loureiro
8.510 exibições
    • ½ Tom
    • A
    • Bb
    • B
    • C
    • Db
    • D
    • Eb
    • E
    • F
    • F#
    • G
    • Ab
  • Adicionar à lista

    0 comentários

    Ver todos os comentários

    Conseguiu tocar?

    0 Tocaram 1 Ainda não

    Grave um vídeo tocando Incinerate e nos envie!

    00:00 / 00:00
    outros vídeos desta música
    repetir qualidade Automático
    Outros vídeos desta música
    00:00 / 00:00
    Automático

    Cifra Club Pro

    Aproveite o Cifra Club com benefícios exclusivos e sem anúncios
    Cifra Club Pro
    Aproveite o Cifra Club com benefícios exclusivos e sem anúncios
    OK