Cifra Club

Aprenda

Sugar Kane

Sonic Youth

Cifra: Principal (violão e guitarra)
tom: Bb
        Essa música é tocada com afinação standard. Infelizmente eu não tenho a letra
        mas é simples tocá-la. 
        Após a introdução, na primeira parte toca-se o Main riff e na segunda parte qud muda
         é só tocar G5 e C5.


Intro:
  Riff1 4x
E|------------------------------------------------------------------------------------|
B|------------------------------------------------------------------------------------|
G|-15-15-15-15-15-15-15-15-14-14-14-14-14-14-14-14-14-12-12-12-12-10-10-10-10-7-7-7-7-|
D|------------------------------------------------------------------------------------|

  G5  X vezes
G|-0-0--|
D|-5-5--|
G|-5-5--|
E|-3-3--|
  
  Riff2  4x
E|--------------------------------------------------------------|
B|--------------------------------------------------------------|
G|--------------------------------------------------------------|
D|--15-15-15-14-14-14-13-13-12-12-12-13-13-13-14-14-14-15-15-15-|

        Main Riff
E|--------------------------|
B|--------------------------|
G|------7/5---5---5---5-----|
D|--5-5-7/5-5---5---5----5--|
A|--5-5-5/3--------------5--|
E|--3-3------------------3--|

   G5  C5
E|----|---|
B|----|---|
G|----|-5-|
D|--5-|-5-|
A|--5-|-3-|
E|--3-|---|



        Cifrado por Jean R.C. de Almeida        

        Outras tab's, Pink Floyd, Sonic Youth, The Breeders...
        Jean R. C. de Almeida.
Composição de Kim Gordon / Lee Ranaldo / Sonic Youth / Steve Shelley / Thurston Moore
9.756 exibições
    • ½ Tom
    • A
    • Bb
    • B
    • C
    • Db
    • D
    • Eb
    • E
    • F
    • F#
    • G
    • Ab
  • Adicionar à lista

    0 comentários

    Ver todos os comentários

    Conseguiu tocar?

    0 Tocaram 0 Ainda não

    Grave um vídeo tocando Sugar Kane e nos envie!

    00:00 / 00:00
    outros vídeos desta música
    repetir qualidade Automático
    Outros vídeos desta música
    00:00 / 00:00
    Automático

    Cifra Club Pro

    Aproveite o Cifra Club com benefícios exclusivos e sem anúncios
    Cifra Club Pro
    Aproveite o Cifra Club com benefícios exclusivos e sem anúncios
    OK