Cifra Club

Aprenda

Superstar

Sonic Youth

Cifra: Principal (violão e guitarra)
tom: Ab
Noise, feedback, then:

     Fm                               Eb
E|-15-----------13----------------|---------------15----13----15---|
B|--------------------13----12----|--------------------------------|
G|--------------------------------|--------------------------------|
D|--------------------------------|--------------------------------|
A|--------------------------------|--------------------------------|
E|--------------------------------|--------------------------------|

     Db                                  C
E|-16-----15-----13---------------|-13----11-----------------------|
B|--------------------------------|-------------9------------------|
G|--------------------------------|--------------------------------|
D|--------------------------------|--------------------------------|
A|--------------------------------|--------------------------------|
E|--------------------------------|--------------------------------|

   A#m                              NC|----------------------------

E|--------------------------------|--------------------------------|
B|--------------------------------|-11-------------9---------------|
G|-----------10-----12-----13-----|--------------------------------|
D|--------------------------------|--------------------------------|
A|--------------------------------|--------------------------------|
E|--------------------------------|--------------------------------|

   NC|----------------------------   Fm
E|--------------------------------|--------------------------------|
B|-6-------------4----------------|-6------------------------------|
G|--------------------------------|--------------------------------|
D|--------------------------------|--------------------------------|
A|--------------------------------|--------------------------------|
E|--------------------------------|--------------------------------|

Fm       Eb
 Long ago
       Db          C
And oh so far away
          Bbm           Db
I fell in love with you
           C
Before the second show

Fm           Eb
Your guitar,
          Db                 C
It sounds so sweet and clear
               Bbm          Db
But you're not really here
              C
It's just the radio

Db                     C           Bbm      Ab
Don't you remember you  told me you loved me baby 
Db                       C             Bbm   Ab
You said you'd be coming back this way again baby
Db          C     Bbm      Ab
Baby, baby, baby, baby, oh baby, 
  F#         Fm
I love you, I really do

     Fm                               Eb
E|-15-----------13----------------|---------------15----13----15---|
B|--------------------13----------|--------------------------------|
G|--------------------------------|--------------------------------|
D|--------------------------------|--------------------------------|
A|--------------------------------|--------------------------------|
E|--------------------------------|--------------------------------|

     Db                                  C
E|-16-----15-----13---------------|-13----11-----------------------|
B|--------------------------------|-------------9------------------|
G|--------------------------------|--------------------------------|
D|--------------------------------|--------------------------------|
A|--------------------------------|--------------------------------|
E|--------------------------------|--------------------------------|

     A#m                              NC|----------------------------
E|--------------------------------|--------------------------------|
B|-----------6------8------9------|-11-------------9---------------|
G|--------------------------------|--------------------------------|
D|--------------------------------|--------------------------------|
A|--------------------------------|--------------------------------|
E|--------------------------------|--------------------------------|

   NC|----------------------------   Fm
E|--------------------------------|--------------------------------|
B|-6-------------4----------------|-6------------------------------|
G|--------------------------------|--------------------------------| 
D|--------------------------------|--------------------------------|
A|--------------------------------|--------------------------------|
E|--------------------------------|--------------------------------|
 
Fm         Eb
Loneliness
          Db         C
Is such a sad affair
          Bbm          Db
And I can hardly wait
           C
To be with to be with you again 

Fm          Eb
What to say,
            Db          C
To make you come again 
             Bb        Db
Come back to me again 
              C
And play your sad guitar
 
Db                     C           Bbm      Ab
Don't you remember you  told me you loved me baby 
Db                       C             Bbm   Ab
You said you'd be coming back this way again baby
Db          C     Bbm      Ab
Baby, baby, baby, baby, oh baby, 
  F#       Fm
I love you, I really do

Db                     C           Bbm      Ab
Don't you remember you  told me you loved me baby 
Db                       C             Bbm   Ab
You said you'd be coming back this way again baby
Db          C     Bbm      Ab
Baby, baby, baby, baby, oh baby, 
  F#        Fm
I love you, I really do
Composição de Bonnie Bramlett / Leon Russell / Richard Marx
Colaboração e revisão:
18.729 exibições
    • ½ Tom
    • A
    • Bb
    • B
    • C
    • Db
    • D
    • Eb
    • E
    • F
    • F#
    • G
    • Ab
  • Adicionar à lista

    0 comentários

    Ver todos os comentários

    Conseguiu tocar?

    5 Tocaram 0 Ainda não

    Grave um vídeo tocando Superstar e nos envie!

    00:00 / 00:00
    outros vídeos desta música
    repetir qualidade Automático
    Outros vídeos desta música
    00:00 / 00:00
    Automático

    Cifra Club Pro

    Aproveite o Cifra Club com benefícios exclusivos e sem anúncios
    Cifra Club Pro
    Aproveite o Cifra Club com benefícios exclusivos e sem anúncios
    OK