Cifra Club

Aprenda

Perfecto

Sónica

Cifra: Principal (violão e guitarra)
tom: B

Intro
E|---------------------------| x4
B|---------------------------|
G|-4-4-----------------------|
D|-4-4-4-4-4-2-2-2-6-6-6-4-4-|
A|-2-2-4-4-4-2-2-2-6-6-6-4-4-|
E|-----2-2-2-0-0-0-4-4-4-2-2-|


Verso I

A veces no tengo pretextos
A veces me siento indefenso
A pesar de que tu eres todo mi poder
Hay algo en ti que no es cierto

E|---------------------------| x4
B|---------------------------|
G|-4-4-----------------------|
D|-4-4-4-4-4-2-2-2-6-6-6-4-4-|
A|-2-2-4-4-4-2-2-2-6-6-6-4-4-|
E|-----2-2-2-0-0-0-4-4-4-2-2-|


Y solo quiero estar parado frente a ti
Y que me digas cuanto tu me odias

E|------------------------------------------------------| x4
B|------------------------------------------------------|
G|-4-4-4-4-4-4-4-4--------------------------------------|
D|-4-4-4-4-4-4-4-4-4-4-4-4-4-4-4-4-6-6-6-6-6-6-6-6---2-4-|
A|-2-2-2-2-2-2-2-2-4-4-4-4-4-4-4-4-6-6-6-6-6-6-6-6---2-4-|
E|-----------------2-2-2-2-2-2-2-2-4-4-4-4-4-4-4-4---0-2-|

Coro

Dices que todo era perfecto
solo tienes excusas y pretexto
que difícil serìa tratar de entender
que eres todo lo que    soñe

E|---------------------------| x4
B|---------------------------|
G|-4-4-----------------------|
D|-4-4-4-4-4-6-6-6-2-2-2-4-4-|
A|-2-2-4-4-4-6-6-6-2-2-2-4-4-|
E|-----2-2-2-4-4-4-0-0-0-2-2-|

E|---------------------------| x2
B|---------------------------|
G|-4-4-----------------------|
D|-4-4-4-4-4-2-2-2-6-6-6-4-4-|
A|-2-2-4-4-4-2-2-2-6-6-6-4-4-|
E|-----2-2-2-0-0-0-4-4-4-2-2-|


Verso II

creo que ahora nada es perfecto
solo tienes excusa y pretextos
es que no puedes darte cuenta que
a sido una perdida de tiempo

E|---------------------------| x4
B|---------------------------|
G|-4-4-----------------------|
D|-4-4-4-4-4-2-2-2-6-6-6-4-4-|
A|-2-2-4-4-4-2-2-2-6-6-6-4-4-|
E|-----2-2-2-0-0-0-4-4-4-2-2-|

y se que todo esta mal ,y no dejo de pensar
y me levanto y no me haces falta

E|------------------------------------------------------| x4
B|------------------------------------------------------|
G|-4-4-4-4-4-4-4-4--------------------------------------|
D|-4-4-4-4-4-4-4-4-4-4-4-4-4-4-4-4-6-6-6-6-6-6-6-6---2-4-|
A|-2-2-2-2-2-2-2-2-4-4-4-4-4-4-4-4-6-6-6-6-6-6-6-6---2-4-|
E|-----------------2-2-2-2-2-2-2-2-4-4-4-4-4-4-4-4---0-2-|


Coro

Dices que todo era perfecto
solo tienes excusas y pretexto
que difícil serìa tratar de entender
que eres todo lo que    soñe

E|---------------------------| x4
B|---------------------------|
G|-4-4-----------------------|
D|-4-4-4-4-4-6-6-6-2-2-2-4-4-|
A|-2-2-4-4-4-6-6-6-2-2-2-4-4-|
E|-----2-2-2-4-4-4-0-0-0-2-2-|

E|---------------------------| x4
B|---------------------------|
G|-4-4-----------------------|
D|-4-4-4-4-4-6-6-6-2-2-2-4-4-|
A|-2-2-4-4-4-6-6-6-2-2-2-4-4-|
E|-----2-2-2-4-4-4-0-0-0-2-2-|

Puente

Dices que todo era perfecto
solo tienes excusas y pretexto
que difícil serìa tratar de entender

E|--------------------------|
B|--------------------------|
G|-4-----4------------------|
D|-4--6| —-4--4-4-4-4-4-4-4-4-
A|-2--6| —-2--4-4-4-4-4-4-4-4-
E|----4-----2-2-2-2-2-2-2-2-|

Dices que todo era perfecto
solo tienes dudas entiendo
que difícil serìa tratar de entender

E|-------------------|
B|-------------------|
G|-4---------4-------|
D|-4--6| —6-4--2-4-4---
A|-2--6| —6-4--2-4-4---
E|----4-4-2----6-6---|

Coro

Dices que todo era perfecto
solo tienes excusas y pretexto
que difícil serìa tratar de entender
que eres todo lo que    soñe

E|---------------------------| x4
B|---------------------------|
G|-4-4-----------------------|
D|-4-4-4-4-4-6-6-6-2-2-2-4-4-|
A|-2-2-4-4-4-6-6-6-2-2-2-4-4-|
E|-----2-2-2-4-4-4-0-0-0-2-2-|

E|---------------------------| x4
B|---------------------------|
G|-4-4-----------------------|
D|-4-4-4-4-4-6-6-6-2-2-2-4-4-|
A|-2-2-4-4-4-6-6-6-2-2-2-4-4-|
E|-----2-2-2-4-4-4-0-0-0-2-2-|

E|-------------| Fin
B|-------------|
G|-4-4-4---44--|
D|-4-4-4---44--|
A|-2-2-2---22--|
E|-------------|
Composição de Sonica
    • ½ Tom
    • A
    • Bb
    • B
    • C
    • Db
    • D
    • Eb
    • E
    • F
    • F#
    • G
    • Ab
  • Adicionar à lista

    0 comentários

    Ver todos os comentários

    Conseguiu tocar?

    0 Tocaram 0 Ainda não

    Grave um vídeo tocando Perfecto e nos envie!

    00:00 / 00:00
    Outros vídeos desta música
    Repetir Qualidade Automático
    Outros vídeos desta música
    00:00 / 00:00
    Automático

    Cifra Club Pro

    Aproveite o Cifra Club com benefícios exclusivos e sem anúncios
    Cifra Club Pro
    Aproveite o Cifra Club com benefícios exclusivos e sem anúncios
    OK