Cifra Club

Cry Holy

Sonicflood

Cifra: Principal (violão e guitarra)
tom: D
E|----0--0----------|
B|----0----0---7----|
G|----9------9------|
D|----9-------------|
A|----7-------------|
E|------------------|

        E         C#m   B         E              B   A
E|-------------------------|-------------------------------|
B|-------------------------|-------------------------------|
G|--------4----------------|--------4----------------------|
D|----2------4--4--6-------|----2------4--4--6--2--4--2----|
A|--------------------2----|-------------------------------|
E|-------------------------|-------------------------------|

E                       A
Every sun and moon and star
                      C#m
All declaring who you are
                    A
We fall silent in amazement

E                              A
    Every word who and deep of man
                        C#m
Every sea and grain of sand
All creation speaks
     B                                 A
And now we sing to proclaim your majesty

(refrão)
                 E
Let the earth rejoice
                  B
Singing with one voice
Let the people cry
C#m        A
Holy holy lord
                E
Every creature sing
                B
Praises to the King
All creation cry
A
Holy is the Lord

        E         C#m   B         E              B   A
E|-----------------------|-------------------------------|
B|-----------------------|-------------------------------|
G|------4----------------|--------4----------------------|
D|--2------4--4--6-------|----2------4--4--6--2--4--2----|
A|------------------2----|-------------------------------|
E|-----------------------|-------------------------------|

E                       A
Every song sung on the earth
                             C#m
Will never capture all your worth
                    A
We fail silent in amazement
E                           A
Let every humble heart now see
                        C#m
The beauty of your majesty
All creation speaks
    B                                   A
And now we sing to the king above all kings....

(refrão)

( E Bsus C#m A9 )

E               Bsus             C#m  A9
All creation proclaims Your magesty
E               Bsus       C#m    A9
Holy is Your name in all te earth
E                 Bsus          A9
All creation proclaims Your magesty
       Bsus
And now we sing

(refrão)
00:00 / 00:00
Outros vídeos desta música
Repetir
Outros vídeos desta música
Composição de Andrew Thompson / Marc Byrd / Rick Heil
Colaboração e revisão:
  • Leônidas Pereira
  • Gustavo
456 exibições
    • ½ Tom
    • A
    • Bb
    • B
    • C
    • Db
    • D
    • Eb
    • E
    • F
    • F#
    • G
    • Ab
  • Adicionar à lista

    0 comentários

    Ver todos os comentários

    Entre para oCifra Club PRO

    Tenha acesso a benefícios exclusivos no App e no Site

    • Chega de anúncios

    • Prioridade de compra em lançamentos

    • Mais recursos no app do Afinador

    • Atendimento Prioritário

    • Descontos nos produtos Cifra Club

    • Ajude a produzir mais conteúdo

    00:00 / 00:00

    Cifra Club Pro

    Aproveite o Cifra Club com benefícios exclusivos e sem anúncios
    Cifra Club Pro
    Aproveite o Cifra Club com benefícios exclusivos e sem anúncios
    OK