Cifra Club

Mora

Sonny Moore

Cifra: Principal (violão e guitarra)
Selo Cifra Club: esta cifra foi revisada para atender aos critérios oficiais da nossa Equipe de Qualidade.
tom: Am
Verse
E|----|---------------|
B|----|---------------| play the first section to start it, then the
G|-12-|-14----12------| second section you play 8x's.
D|-12-|-14----12------|
A|-10-|-12-x7-10-x3---|
E|-10-|-12----10------|

Chorus
E|------------------------------| |-----------|
B|------------------------------| |-----------|
G|-10----12----9----14----12----| |-10---9----|
D|-10----12----9----14----12----| |-10---9----|
A|-8--x6-10-x6-7-x6-12-x4-10-x4-| x3 Then you do |-8-x6-7-x6-|
E|-8-----10----x----12----10----| |-8----7----|

Post Chorus
E|---------------|
B|---------------|
G|-14----12------|
D|-14----12------|
A|-12-x7-10-x3---| x5
E|-12----10------|

Verse
E|---------------|
B|---------------|
G|-14----12------|
D|-14----12------|
A|-12-x7-10-x3---| x8
E|-12----10------|

Chorus - Gets cut off. :\
E|------------------------------| |-----------|
B|------------------------------| |-----------|
G|-10----12----9----14----12----| |-10---9----|
D|-10----12----9----14----12----| |-10---9----|
A|-8--x6-10-x6-7-x6-12-x4-10-x4-| x3 Then you do |-8-x6-7-x6-|
E|-8-----10----x----12----10----| |-8----7----|

If you want a tab for the full song to just improvise with the tech beat then play this 
the chorus...

Interlude
E|-----------------xx-----| Eb|-----------------xx-xx----|
B|-----------------17-----| Bb|-----------------17-16----|
G|-13-14-11--13-14--------| Gb|-13-14-11--13-14----------|
D|------------------------| Db|--------------------------|
A|------------------------| Ab|--------------------------|
E|------------------------| Db|--------------------------|

Chorus
E|------------------------------|
B|------------------------------|
G|-10----12----9----14----12----|
D|-10----12----9----14----12----|
A|-8--x6-10-x6-7-x6-12-x4-10-x4-| x3
E|-8-----10----x----12----10----|

Then I'm guessing it's something like this..
E|------------------------|
B|------------------------|
G|-10----12-----10---9----|
D|-10----12-----10---9----|
A|-8--x6-10-x6--8-x6-7-x6-|
E|-8-----10-----8----7----|

Outro (one strum each)
E|------------------------------|
B|------------------------------|
G|-10----12----9----14----12----|
D|-10----12----9----14----12----|
A|-8-----10----7----12----10----| x3
E|-8-----10----x----12----10----|

E|------------------------|
B|------------------------|
G|-10----12-----10---9----|
D|-10----12-----10---9----|
A|-8-----10-----8----7----|
E|-8-----10-----8----7----|
Outros vídeos desta música
    14 exibições
      • ½ Tom
      • Am
      • Bbm
      • Bm
      • Cm
      • C#m
      • Dm
      • Ebm
      • Em
      • Fm
      • F#m
      • Gm
      • G#m
    • Adicionar à lista

    Afinação da cifra

    Afinador online

      0 comentários

      Ver todos os comentários

      Conseguiu tocar?

      0Tocaram0Ainda não

      Grave um vídeo tocando Mora e nos envie!

      Toque também

      1. Imagem do artista SkrillexMake It Bun Dem Skrillex
      2. Imagem do artista KaskadeAtmosphere Kaskade
      3. Imagem do artista SonnyLet Love Sonny
      4. Imagem do artista Endless HallwayA Bad Current Endless Hallway

      Entre para o Cifra Club PRO

      Tenha acesso a benefícios exclusivos no App e no Site

      • Chega de anúncios

      • Badges exclusivas

      • Mais recursos no app do Afinador

      • Atendimento Prioritário

      • Aumente seu limite de lista

      • Ajude a produzir mais conteúdo

      Cifra Club Pro

      Aproveite o Cifra Club com benefícios exclusivos e sem anúncios
      Cifra Club Pro
      Aproveite o Cifra Club com benefícios exclusivos e sem anúncios
      Ops (: Contenido disponible sólo en portugués.
      OK