Cifra Club

Aprenda

St Thomas

Sonny Rollins

Cifra: Principal (violão e guitarra)
Tom: C
Tabbed by: rockstardudeee

Tuning: Standard

repeat 2x
e|---------8----7------------------------------------8----7----8-------------|
B|-----8-------------10----8----10----5----6----8----------------------------|
G|---------------------------------------------------------------------------|  
D|---------------------------------------------------------------------------|
A|---------------------------------------------------------------------------|
E|---------------------------------------------------------------------------|

~~~~~~~~~~~~~~~~~~~~~~~~~~~~~~~~~~~~~~~~~~~~~~~~~~~~~~~~~~~~~~~~~~~~~~~~~~~~~~
repeat 1x
e|------12---13---15------13---12---10------12---10--------------------------|
B|----------------------------------------------------13---10------13--12--13|
G|--------------------------------------------------------------12-----------|
D|---------------------------------------------------------------------------|
A|---------------------------------------------------------------------------|
E|---------------------------------------------------------------------------|

===============================================================================

Composição de Sonny Rollins
720 exibições
    • ½ Tom
    • A
    • Bb
    • B
    • C
    • Db
    • D
    • Eb
    • E
    • F
    • F#
    • G
    • Ab
  • Adicionar à lista

    0 comentários

    Mostrar mais comentários

    Conseguiu tocar?

    0 Tocaram 0 Ainda não

    Grave um vídeo tocando St Thomas e mande pra gente!

    00:00 / 00:00
    outros vídeos desta música
    repetir qualidade Automático
    Outros vídeos desta música
    00:00 / 00:00
    Automático
    OK