Cifra Club

1 Metro e 65

Sorriso Maroto

Cifra: Principal (violão e guitarra)
tom: D
[Intro] Gm6  D9

E|-------------------------------------------------------------------|
B|--5--3---------5--3----------5--3---------5--3---------------------|
G|--------3--2---------3--2----------3--2---------3--2---------------|
D|-------------------------------------------------------------------|
A|-------------------------------------------------------------------|
E|-------------------------------------------------------------------|

E|-------------------------------------------------------------------|
B|--5--3--------------5--3-------------------------------------------|
G|------------4--2---------------4--2--------------------------------|
D|---------4-----------------4---------------------------------------|
A|-------------------------------------------------------------------|
E|-------------------------------------------------------------------|

 Gm6
Hoje acordei, e me lembrei
Do que sonhei, por que não sei
 D7M(9)
Me fez tão mal, sonho ruim, não foi legal
 Gm6
Perdia você não sei por quê
Nem como foi... aconteceu!
D7M(9)
Eu não gostei, foi tão real, até doeu
G7M        Em7/9
Esse medo, agonia
    D7M(9)     A/C#     Bm7    Bm7/A
Me fez pensar na nossa vida
G7M       Em7/9    D9    A/C#   Bm7   Bm7/A
Eu te amo e devia dizer todo dia

[Solo]

E|----------7----------7---------------------------------------------|
B|--7--5--------7--5-------------------------------------------------|
G|-------------------------------------------------------------------|
D|-------------------------------------------------------------------|
A|-------------------------------------------------------------------|
E|-------------------------------------------------------------------|

 G9                Gm6        G7+ D/F# Em7 D
Meu mundo tem um jeito todo seu
    G7M
Um metro e sessenta e cinco
         Em7/9
O salto sete o sapato cinco
            D7M(9)              A/C#
No sol seus olhos mudam de cor
           Bm7(11)               A9
Demora no banho e fazendo amor (eu sei)
 G7M
Sei te fazer sorrir
          Em7/9
Que a TV não te deixa dormir
                 D7M(9)        A/C#
Não quer ver filmes de entristecer
       Bm7(11)      Bm7/A       Em7(11)
Não me imagino envelhecer sem você
                   Gm6 (D9/F# Em7 G/A)
Eu te amo e te escolhi           pra viver

E|-------------------------------------------------------------------|
B|--5--3---------5--3----------5--3---------5------------------------|
G|--------3--2---------3--2----------3--2----------------------------|
D|-------------------------------------------------------------------|
A|-------------------------------------------------------------------|
E|-------------------------------------------------------------------|

E|----------7----------7---4-----------------------------------------|
B|--7--5--------7--5-------3-----------------------------------------|
G|-------------------------2-----------------------------------------|
D|-------------------------4-----------------------------------------|
A|-------------------------------------------------------------------|
E|-------------------------------------------------------------------|
00:00 / 00:00
Outros vídeos desta música
Repetir
Outros vídeos desta música
Composição de Sérgio Jr / Thiago Silva
210.374 exibições
    • ½ Tom
    • A
    • Bb
    • B
    • C
    • Db
    • D
    • Eb
    • E
    • F
    • F#
    • G
    • Ab
  • Adicionar à lista

    0 comentários

    Ver todos os comentários

    Conseguiu tocar?

    13 Tocaram 1 Ainda não

    Grave um vídeo tocando 1 Metro e 65 e nos envie!

    Entre para oCifra Club PRO

    Tenha acesso a benefícios exclusivos no App e no Site

    • Chega de anúncios

    • Prioridade de compra em lançamentos

    • Mais recursos no app do Afinador

    • Atendimento Prioritário

    • Descontos nos produtos Cifra Club

    • Ajude a produzir mais conteúdo

    00:00 / 00:00

    Cifra Club Pro

    Aproveite o Cifra Club com benefícios exclusivos e sem anúncios
    Cifra Club Pro
    Aproveite o Cifra Club com benefícios exclusivos e sem anúncios
    OK