Cifra Club

Misery

Soul Asylum

Cifra: Principal (violão e guitarra)
tom: C
Verse
C        G      Am    F
They say misery loves company
C                G     Am        F
We could start a company and make misery

Pre Chorus:
C5         G5   F5
Frustrated incorporated
C5      F5            C5
I know just what you need
        F5            C5
I might just have the thing
       F5         C5        G5
I know what you'd payed to see


(Chorus):

C5     G5     A5  F5
Put me out of my misery
C5          G5             A5        F5
I do it for you, would you do it for me?
C5      G5     A5 F5   C5 G5  F5
We will always be busy making misery

Verse 2:
C                G      Am        F
We could build a factory and make misery
C          G       Am      F
We'll create the cure, we made the disease

Pre Chorus:
C5         G5   F5
Frustrated incorporated
C5         G5   F5
Frustrated incorporated
C5      F5           C5
I know just what you need
        F5            C5
I might just have the thing
       F5         C5      G5
I know what you'd pay to feel

Chorus:
C5     G5     A5  F5
Put me out of my misery
C5             G5        A5    F5
All ya suicide kings and drama queens
C5      G5     A5 F5  C5 G5  F5
Forever after happily making misery

Solo:
E|----------------------------------------------------|
B|----------------------------------------------------|
G|-------------------------17^^^-15^^^-17br-15--------|
D|--12-13-15^^^--------------------------------17-15--|
A|--------------12-13-15^^^---------------------------|
E|----------------------------------------------------|

E|----------------------------------------------------------|
B|----------------------------------------------------------|
G|----------------------------------------------------------|
D|--15-17-15---15---12-10--8-10--8\5^^----------------------|
A|-----------17-----------------------5/6\5/6^^-10\8\4^^^^--|
E|----------------------------------------------------------|

Verse 3:
C       G            Am
Did you satisfy your greed?
    F               C
Get what you need?
       G    Am       F
Was it only envy, so empty

Outro:
C5         G5   F5
Frustrated incorporated
C5         G5   F5
Frustrated incorporated
C5         G5   F5
Frustrated incorporated
C5         G5   F5
Frustrated incorporated
00:00 / 00:00
Outros vídeos desta música
Repetir
Outros vídeos desta música
Composição de Dave Pirner
Colaboração e revisão:
  • Jose Junior
1.314 exibições
    • ½ Tom
    • A
    • Bb
    • B
    • C
    • Db
    • D
    • Eb
    • E
    • F
    • F#
    • G
    • Ab
  • Adicionar à lista

    0 comentários

    Ver todos os comentários
    00:00 / 00:00

    Cifra Club Pro

    Aproveite o Cifra Club com benefícios exclusivos e sem anúncios
    Cifra Club Pro
    Aproveite o Cifra Club com benefícios exclusivos e sem anúncios
    OK