Cifra Club

Aprenda

Babylon

Soulfly

Cifra: Principal (violão e guitarra)
tom: C#m
(B F# B E G# C#)

(intro 2x)

|-------------------------------------------------------------------|
|-------------------------------------------------------------------|
|-------------------------------------------------------------------|
|-------------------------------------------------------------------|
|-------------------------------------------------------------------|
|---000000000000----00000000000----000000000000----000000000000-----|
    ............    ...........    ............    ............

(verso 4x)
|-------------------------------------------------------------------|
|-------------------------------------------------------------------|
|-------------------------------------------------------------------|
|-------------------------------------------------------------------|
|-------------------------------------------------------------------|
|---0-6/4---0-6/4---0-3/6---0-3/6---0-6/4---0-6/4---0-6/4---0-6/4---|

(refrão 2x)
|--------------------------------|   
|--------------------------------|   
|--------------------------------|      
|--------------------------------|
|--------------------------------|
|---5-0---5-0---5-0---5-0---3~---|

(verso 4x)
|-------------------------------------------------------------------|
|-------------------------------------------------------------------|
|-------------------------------------------------------------------|
|-------------------------------------------------------------------|
|-------------------------------------------------------------------|
|---0-6/4---0-6/4---0-3/6---0-3/6---0-6/4---0-6/4---0-6/4---0-6/4---|

(refrão 2x)
|--------------------------------|
|--------------------------------|
|--------------------------------|
|--------------------------------|
|--------------------------------|
|---5-0---5-0---5-0---5-0---3~---|

|-----------------------------------|
|-----------------------------------|
|-----------------------------------|
|-----------------------------------|
|----------------------------9--4---|
|---0-0-0-0-0-0-0-0-0-0-0-0--9--4---|

(verso 4x)
|-------------------------------------------------------------------|
|-------------------------------------------------------------------|
|-------------------------------------------------------------------|
|-------------------------------------------------------------------|
|-------------------------------------------------------------------|
|---0-6/4---0-6/4---0-3/6---0-3/6---0-6/4---0-6/4---0-6/4---0-6/4---|

(refrão 2x)
|--------------------------------|
|--------------------------------|
|--------------------------------|
|--------------------------------|
|--------------------------------|
|---5-0---5-0---5-0---5-0---3~---|

|-----------------------------------|
|-----------------------------------|
|-----------------------------------|
|-----------------------------------|
|----------------------------9--4---|
|---0-0-0-0-0-0-0-0-0-0-0-0--9--4---|

(final 9x)  
|-------------------------------------------------------------------|
|-------------------------------------------------------------------|
|-------------------------------------------------------------------|
|-------------------------------------------------------------------|
|-------------------------------------------------------------------|
|---000000000000----00000000000----000000000000----000000000000-----|
    ............    ...........    ............    ............
Composição de Max Cavalera
Colaboração e revisão:
  • Jeferson L.
474 exibições
    • ½ Tom
    • Am
    • Bbm
    • Bm
    • Cm
    • C#m
    • Dm
    • Ebm
    • Em
    • Fm
    • F#m
    • Gm
    • G#m
  • Adicionar à lista

    0 comentários

    Ver todos os comentários

    Conseguiu tocar?

    0 Tocaram 0 Ainda não

    Grave um vídeo tocando Babylon e nos envie!

    00:00 / 00:00
    outros vídeos desta música
    repetir qualidade Automático
    Outros vídeos desta música
    00:00 / 00:00
    Automático

    Cifra Club Pro

    Aproveite o Cifra Club com benefícios exclusivos e sem anúncios
    Cifra Club Pro
    Aproveite o Cifra Club com benefícios exclusivos e sem anúncios
    OK