Cifra Club

Aprenda

Corrosion Creeps

Soulfly

Cifra: Principal (violão e guitarra)
tom: E
Tuning: Standard
INTRO (play the intro very * to the song for the right pattern )
||-------------------------------------|
||-------------------------------------|
||-------------------------------------|  
||-------------------------------------|  
||-------------------------------------|
||-1111111\5555555\44444\22222---etc---|
                                                    
Riff 1          
|-----------------|---------------------------------|
|-----------------|---------------------------------|
|-----------------|---------------------------------|
|-----------------|---------------------------------|
|-----------------|---------------------------------|
|-2-1-0-3-0-0-1-2-|-2-1-0-0-3-0-0-1-2---------------|

[INTRO]
[Riff 1]
Then :      

Riff 2
|---------------------------------------------------|
|---------------------------------------------------|
|---------------------------------------------------|
|---------------------------------------------------|
|-3-4-5-3-4----------5-6-7-6-7----------------------|
|-1-2-3-1-2----------3-4-5-4-5----------------------|

[Riff 1]
[Riff 2]
sorry about the solo,working on it...
[Riff 2]
[Riff 1]
[INTRO]

 OUTRO     
|-------------------------------------------------|
|-------------------------------------------------|
|-------------------------------------------------|
|*|
|-------------------------------------------------|
|-------------------------------------------------|
           
|-------------------------------------------------|
|-------------------------------------------------|
|-------------------------------------------------|
|-------------------------------------------------|
|-3-4---3-4---3-4---3-2---------------------------|
|-1-2---1-2---1-2---1-0---------------------------|

That's all !
Composição de Max Cavalera
332 exibições
    • ½ Tom
    • A
    • Bb
    • B
    • C
    • Db
    • D
    • Eb
    • E
    • F
    • F#
    • G
    • Ab
  • Adicionar à lista

    0 comentários

    Ver todos os comentários

    Conseguiu tocar?

    0 Tocaram 0 Ainda não

    Grave um vídeo tocando Corrosion Creeps e nos envie!

    00:00 / 00:00
    outros vídeos desta música
    repetir qualidade Automático
    Outros vídeos desta música
    00:00 / 00:00
    Automático

    Cifra Club Pro

    Aproveite o Cifra Club com benefícios exclusivos e sem anúncios
    Cifra Club Pro
    Aproveite o Cifra Club com benefícios exclusivos e sem anúncios
    OK