Cifra Club

Aprenda

I Believe

Soulfly

Tab de baixo: Principal
Accordage normal
Bass 5 cordes

Après la petite intro a la gratte
After the short guitar intro

> prolongé la note

I believe riff1
G------------------------------------------------------------------------|
D------------------------------------------------------------------------|
A------------------------------------------------------------------------|
E------------------------------------------------------------------------|
B-0-4-0------0-0-4-0-----0-4-0-------0-0-4-0-----------------------------|

Immortality riff2
G------------------------------------------------------------------------|
D------------------------------------------------------------------------|
A------------------------------------------------------------------------|
E------------------------------------------------------------------------|
B-0-4-0>-0-0-4-0>---0-4-0>-0-0-4-0---------------------------------------|

Riff entre les 2 strophes
Riff between 2 stanzas
riff3
G------------------------------------------------------------------------|
D------------------------------------------------------------------------|
A------------------------------------------------------------------------|
E------------------------------------------------------------------------|
B-0-0-0-0-10-0-0-0-0-0-11-11-11-11---------------------------------------|

riff1
riff2
riff3

Refrain
Chorus

G---------------------------------------------------------------------------|
D---------------------------------------------------------------------------|
A------------------------------------5---5>------3---3---5--3--0------------|
E-5>---5---5>-------3>--3---3-----3----5-----------3------------------------|
B--------5----------------0----0--------------------------------------------|

riff4

G------------------------------------------------------------------------|
D------------------------------------------------------------------------|
A------------------------------------------------------------------------|
E-5-5-5-5-5-5-6>-----5-5-5-5-5-5-6>--------------------------------------|
B------------------------------------------------------------------------|

riff1
riff2
riff3
riff1
riff2
riff3
Chorus
At The End of the Last Chorus
A la fin du dernier refrain

G------------------------------------------------------------------------|
D------------------------------------------------------------------------|
A-3-3-3-3-3-3-3-3-3-3-3-3-3-3-3-5-3-0------------------------------------|
E------------------------------------------------------------------------|
B------------------------------------------------------------------------|

riff6
During The Guitar Solo
Pendant le solo de gratte

G---------------------------------------------------------------------------|
D---------------------------------------------------------------------------|
A---------------------------------------------------------------------------|
E---------6-5------------6-5------------------------------------------------|
B-0-0-0-0--------0-0-0-0----------------------------------------------------|

riff7
You Can't Kill God

G---------------------------------------------------------------------------|
D---------------------------------------------------------------------------|
A---------------------------------------------------------------------------|
E---------6-5-6Bend>--------------------------------------------------------|
B-0-0-0-0-------------------------------------------------------------------|

For The End Solo You Can Move On The Same Notes Than In The Chorus On The E A Strings

Pour le solo de fin vous pouvez évolué sur les meme notes que celles du refrain sur les 
E et A

Tabler Par Pig Benis
Composição de Max Cavalera
262 exibições

0 comentários

Ver todos os comentários

Conseguiu tocar?

0 Tocaram 0 Ainda não

Grave um vídeo tocando I Believe e nos envie!

00:00 / 00:00
outros vídeos desta música
repetir qualidade Automático
Outros vídeos desta música
00:00 / 00:00
Automático

Cifra Club Pro

Aproveite o Cifra Club com benefícios exclusivos e sem anúncios
Cifra Club Pro
Aproveite o Cifra Club com benefícios exclusivos e sem anúncios
OK