Cifra Club

Aprenda

Seek N Strike

Soulfly

Cifra: Principal (violão e guitarra)
tom: G
Album: "3"
Tabber: Rupert Cameron
Tuning: Drop D down 1.5 steps (B F# B E G# C#) Low to High


Intro and Main Riff
|---------------------------------------------|
|---------------------------------------------|
|---------------------------------------------|
|---------------------------------------------|
|---------------------------------------------|
|-2-1-2-1-1-4-4-1-2-1-1-2-1-2-1-1-4-4-1-2-1-1-|

Pre-Chorus
|------------------------------------|
|------------------------------------|
|------------------------------------| (x4)
|-3-3-3-3-6-6-6-6-7-7-7-7-12-12-12-12|
|-3-3-3-3-6-6-6-6-7-7-7-7-12-12-12-12|
|-3-3-3-3-6-6-6-6-7-7-7-7-12-12-12-12|


Pre-Chorus Guitar 2
(not the exact amount, but you get the idea)
|----------------------------------------------------------|
|----------------------------------------------------------| 
|-13-13-13-13-13-13-13-13-13-13-13-13-13-13-13-13-13-13-13-|
|----------------------------------------------------------|
|----------------------------------------------------------| 
|----------------------------------------------------------| 

Chorus
|-----------------------------------------|
|-----------------------------------------|
|-----------------------------------------| (x8)
|----------------------9/10-10-10---------|
|----------------------9/10-10-10---------|
|0-0-6-0-6-0-6-0-6-0-6/9/10-10-10---------|

Bridge
|---------------------------------------|
|---------------------------------------|
|---------------------------------------|
|-x-x-x-x-x-x-x-x-x-x-x-x-x-x-x-x-x-x-x-|
|-x-x-x-x-x-x-x-x-x-x-x-x-x-x-x-x-x-x-x-|
|-x-x-x-x-x-x-x-x-x-x-x-x-x-x-x-x-x-x-x-|

Rhythm for Solo
|-----------|
|-----------|
|-----------| 
|-0-0-3p2-0-|
|-0-0-3p2-0-|
|-0-0-3p2-0-|

Solo
Tremolo...................................
|------------------------15-14-17--------------------|
|----------------------15---------15-16-18-18*AHb-/3-|
|-14-12-11-7-8-11-15-14------------------------------|
|----------------------------------------------------|
|----------------------------------------------------|
|----------------------------------------------------|
Key
*AH Artificial Harmonic
b Bend
/ Slide up or down to the number right to it
pm Palm mute
x Mute

E-mail me with any complaints or anything else at *
Composição de Max Cavalera
1.324 exibições
    • ½ Tom
    • A
    • Bb
    • B
    • C
    • Db
    • D
    • Eb
    • E
    • F
    • F#
    • G
    • Ab
  • Adicionar à lista

    0 comentários

    Ver todos os comentários

    Conseguiu tocar?

    0 Tocaram 0 Ainda não

    Grave um vídeo tocando Seek N Strike e nos envie!

    00:00 / 00:00
    outros vídeos desta música
    repetir qualidade Automático
    Outros vídeos desta música
    00:00 / 00:00
    Automático

    Cifra Club Pro

    Aproveite o Cifra Club com benefícios exclusivos e sem anúncios
    Cifra Club Pro
    Aproveite o Cifra Club com benefícios exclusivos e sem anúncios
    OK