Cifra Club

Aprenda

Incessant Mace

Soundgarden

Cifra: Principal (violão e guitarra)
tom: F# (forma dos acordes no tom de G) Afinação: Eb Ab Db Gb Bb Eb
Main Riff
|e|----------------------------------------------|
|b|----------------------------------------------|
|g|----------------------------------------------|
|d|----------------------------------------------|
|a|-----5h7---5------------------5--3h4p3h4p3h4--|
|e|-0-------------7----5--4--3-------------------|

Alternate Riff
|------------------------------------------------------------|
|------------------------------------------------------------|
|-----------9------7-----------------------------------------|
|--------9------7-------9------7-----------------------------|
|-----7------5-------9------7--------------------------------|
|-0---------------7------5-------4-----3----2b---------------|

Solo end riff
|----0---0---0---0---0--------0-----0-----0------0-----|
|--5---5---5--/3---3---3----3------3-----3------3---/9-|
|-------------------------4------4------4------4-------|
|------------------------------------------------------|
|------------------------------------------------------|
|------------------------------------------------------|

End on
|-----|
|-----|
|-----|
|-2---|
|-2---|
|-0---|
Composição de Chris Cornell / Kim Thayil
Colaboração e revisão:
  • Gabriel Leite
45 exibições
    • ½ Tom
    • A
    • Bb
    • B
    • C
    • Db
    • D
    • Eb
    • E
    • F
    • F#
    • G
    • Ab
  • Adicionar à lista

    0 comentários

    Ver todos os comentários

    Conseguiu tocar?

    0 Tocaram 0 Ainda não

    Grave um vídeo tocando Incessant Mace e nos envie!

    00:00 / 00:00
    Outros vídeos desta música
    Repetir Qualidade Automático
    Outros vídeos desta música
    00:00 / 00:00
    Automático

    Cifra Club Pro

    Aproveite o Cifra Club com benefícios exclusivos e sem anúncios
    Cifra Club Pro
    Aproveite o Cifra Club com benefícios exclusivos e sem anúncios
    OK