Cifra Club

Anjos

Spazio

Cifra: Principal (violão e guitarra)
Selo Cifra Club: esta cifra foi revisada para atender aos critérios oficiais da nossa Equipe de Qualidade.
tom: B
Afinacao: ebgdaD

(para alinhamento, formatar com fonte Courier News)


.INTRODUCAO
e|-------------------------------------|-------------------------------------|
b|-------------------------------------|-------------------------------------|
g|--------4--------------4-------------|---------4-2--------------4----------|
d|----4--------------4------4----------|----4-----------------4--------------|
a|-2----2-----/4-----------------------|-2----2------2/4---------------------|
D|----------------5----5---------------|-------------------5----5----\-------|
  g1 - flanger


e|-------------------------------------|-------------------------------------|
b|-------------------------------------|-------------------------------------|
g|-------------------------------------|-------------------------------------|
d|-------------------------------------|-------------------------------------|
a|-------------------------------------|-------------------------------------|
D|-------------------------------------|-------------------------------------|
  g2



.
e|-------------------------------------|-------------------------------------|
b|-------------------------------------|-------------------------------------|
g|-----------4-------------------------|-------------------------------------|
d|----4---------4----4-----------------|-------------------------------------|
a|-------------------------------------|-------------------------------------|
D|-2-----2--------2------4-------------|-------------------------------------|
  g1


e|-------------------------------------|-------------------------------------|
b|-------------------------------------|-------------------------------------|
g|-------------------4-----------------|-------------------------------------|
d|-------------------4-----------------|-------------------------------------|
a|-------------------2-----------------|-------------------------------------|
D|-------------------------------------|-------------------------------------|
  g2 - dist          |volume



.
e|-------------------------------------|-------------------------------------|
b|-------------------------------------|-------------------------------------|
g|-4------4----4-4---------------------|---7----7----7--7---4-----4--4----4--|
d|-4------4----4-4---5------5----5-5---|---7----7----7--7---2-----2--2----2--|
a|-2------2----2-2---5------5----5-5---|---0----0----0--0---2-----2--2----2--|
D|-------------------5------5----5-5---|---0----0----0--0---2-----2--2----2--|
  g1 - dist


e|-------------------------------------|-------------------------------------|
b|-------------------------------------|-------------------------------------|
g|-4------4----4-4---7------7----7-7---|---7----7----7--7--9--7-7-7/9-9/12-12|
d|-4------4----4-4---5------5----5-5---|---7----7----7--7--9-----------------|
a|-2------2----2-2---5------5----5-5---|---5----5----5--5--7--5-5-5/7-7/10-10|
D|-------------------5------5----5-5---|-------------------------------------|
  g2 - dist



.
e|-------------------------------------|-------------------------------------|
b|-------------------------------------|-------------------------------------|
g|-4---4/6--7--7/9---9-------11--------|---11/12---11--9--7--7/9--7--6-\-----|
d|-------------------------------------|-------------------------------------|
a|-2---2/4--5--5/7---7-------9---------|---9/-10---9---7--5--5/7--5--4-\-----|
D|-------------------------------------|-------------------------------------|
  g1


e|-------------------------------------|-------------------------------------|
b|-------------------------------------|--------------------------5--5-------|
g|-4------4----4-4---7------7----7--7--|---7-------7--7------4----4--4-------|
d|-4------4----4-4---5------5----5--5--|---7-------7--7------2----2--2-------|
a|-2------2----2-2---5------5----5--5--|---0-------0--5------2----2--2-7-\---|
D|-------------------5------5----5--5--|---0-------0--0------2----2--2-------|
  g2



.PRE BASE
e|-------------------------------------|-------------------------------------|
b|-------------------------------------|-------------------------------------|
g|----------4------------------4-------|----------4---------------------7----|
d|----4-------4----------4--------4----|----4-------4-----4-----4----4-------|
a|-2-----2--------/4-------------------|-2-----2-------2---------------------|
D|---------------------5----5----------|---------------------5-----5---------|
  g1 - flanger


e|-------------------------------------|-------------------------------------|
b|-------------------------------------|-------------------------------------|
g|-------------------------------------|-------------------------------------|
d|-------------------------------------|-------------------------------------|
a|-2-----------------------------------|-------------------------------------|
D|-------------------------------------|-------------------------------------|
  g2 |volume



.BASE
e|-------------------------------------|-------------------------------------|
b|-------------------------------------|-------------------------------------|
g|----------4------------------4-------|----------4------------------4-------|
d|----4--------4---------4-------4-----|----4-------4-----4----4-------4-----|
a|-2-----2--------/4-------------------|-2-----2-------2---------------------|
D|--------------------5-----5----------|--------------------5-----5-------5--|
  g1 - flager


e|-------------------------------------|-------------------------------------|
b|--------------------20------19-------|-17--19-------------20-------19------|
g|-----------------------19------19----|-----------------------19-------19---|
d|-------------------------------------|-------------------------------------|
a|-------------------------------------|-------------------------------------|
D|-------------------------------------|-------------------------------------|
  g2 - chorus + delay



.
e|-------------------------------------|-----------------------7-------------|
b|-------------------------------------|-------------------------7-------5---|
g|----------4-2---------------4--------|----------4----------------7--5------|
d|----4------------------4------4----4-|----4--------4-----------------------|
a|-2-----2-------/4--------------------|-------------------------------------|
D|--------------------5-----5------5---|-2-----2---------4-------------------|
  g1                                                             |harmonico|


e|-------------------------------------|-----------------------------12------|
b|-17---19------------20------19-------|-17-----------------------------12---|
g|------------------------19------19---|-----------------------------------12|
d|-------------------------------------|-------------------------------------|
a|-------------------------------------|-------------------------------------|
D|-------------------------------------|-------------------------------------|
  g2                                                               |harmonico|



e|-------------------------------------|-------------------------------------|
b|-------------------------------------|-------------------------------------|
g|----------4------------------4-------|----------4------------------4-------|
d|----4--------4---------4-------4-----|----4-------4-----4----4-------4-----|
a|-2-----2--------/4-------------------|-2-----2-------2---------------------|
D|--------------------5-----5----------|--------------------5-----5-------5--|
  g1


e|-------------------------------------|-------------------------------------|
b|--------------------20------19-------|-17--19-------------20-------19------|
g|-----------------------19------19----|-----------------------19-------19---|
d|-------------------------------------|-------------------------------------|
a|-------------------------------------|-------------------------------------|
D|-------------------------------------|-------------------------------------|
  g2



.
e|-------------------------------------|-------------------------------------|
b|-------------------------------------|----------0--------------------------|
g|----------4-2---------------4--------|-------------------------------------|
d|----4------------------4------4----4-|----4-------4----4-------------------|
a|-2-----2-------/4--------------------|-------------------------------------|
D|--------------------5-----5------5---|-2-----2-------2----4----------------|
  g1                                                           |pausa|


e|-------------------------------------|-------------------------------------|
b|-17---19------------20------19-------|-------------------------------------|
g|------------------------19------19-\-|-------------------------------------|
d|-------------------------------------|-2-2-2-2-2-2-2-2-2--4----------------|
a|-------------------------------------|-2-2-2-2-2-2-2-2-2--4-----------12\--|
D|-------------------------------------|-2-2-2-2-2-2-2-2-2--4-----------12\--|
  g2                                     | dist                |pausa|




.REFRAO
e|-------------------------------------|-------------------------------------|
b|-------------------------------------|-------------------------------------|
g|-4------4----4-4---------------------|---7----7----7--7---4-----4--4----4--|
d|-4------4----4-4---5------5----5-5---|---7----7----7--7---2-----2--2----2--|
a|-2------2----2-2---5------5----5-5---|---0----0----0--0---2-----2--2----2--|
D|-------------------5------5----5-5---|---0----0----0--0---2-----2--2----2--|
  g1 - dist


e|-------------------------------------|-------------------------------------|
b|-------------------------------------|-------------------------------------|
g|-4------4----4-4---7------7----7-7---|---7----7----7--7--9--7-7-7/9-9/12-12|
d|-4------4----4-4---5------5----5-5---|---7----7----7--7--9-----------------|
a|-2------2----2-2---5------5----5-5---|---5----5----5--5--7--5-5-5/7-7/10-10|
D|-------------------5------5----5-5---|-------------------------------------|
  g2 - dist



.
e|-------------------------------------|-------------------------------------|
b|-------------------------------------|-------------------------------------|
g|-4------4----4-4---------------------|---7----7----7--7---4-----4--4----4--|
d|-4------4----4-4---5------5----5-5---|---7----7----7--7---2-----2--2----2--|
a|-2------2----2-2---5------5----5-5---|---0----0----0--0---2-----2--2----2--|
D|-------------------5------5----5-5---|---0----0----0--0---2-----2--2----2--|
  g1


e|-------------------------------------|-------------------------------------|
b|-------------------------------------|-------------------------------------|
g|-4------4----4-4---7------7----7--7--|---7-------7--7------9----9--9-------|
d|-4------4----4-4---5------5----5--5--|---7-------7--7------9----9--9-------|
a|-2------2----2-2---5------5----5--5--|---0-------0--5------7----7--7-7-\---|
D|-------------------5------5----5--5--|---0-------0--0----------------------|
  g2



.PRE BASE
e|-------------------------------------|-------------------------------------|
b|-------------------------------------|-------------------------------------|
g|----------4------------------4-------|----------4---------------------7----|
d|----4-------4----------4--------4----|----4-------4-----4-----4----4-------|
a|-2-----2--------/4-------------------|-2-----2-------2---------------------|
D|---------------------5----5----------|---------------------5-----5---------|
  g1 - flanger


e|-------------------------------------|-------------------------------------|
b|-------------------------------------|-------------------------------------|
g|-------------------------------------|-------------------------------------|
d|-------------------------------------|-------------------------------------|
a|-2-----------------------------------|-------------------------------------|
D|-------------------------------------|-------------------------------------|
  g2 |volume



.BASE
e|-------------------------------------|-------------------------------------|
b|-------------------------------------|-------------------------------------|
g|----------4-2---------------4--------|-------------------------------------|
d|----4------------------4------4----4-|-2-2-2-2-2-2-2-2-2--4-----------12\--|
a|-2-----2-------/4--------------------|-2-2-2-2-2-2-2-2-2--4-----------12\--|
D|--------------------5-----5------5---|-2-2-2-2-2-2-2-2-2--4-----------12\--|
  g1                                     | dist               |pausa|


e|-------------------------------------|-------------------------------------|
b|-17---19------------20------19-------|-------------------------------------|
g|------------------------19------19-\-|-------------------------------------|
d|-------------------------------------|-2-2-2-2-2-2-2-2-2--4----------------|
a|-------------------------------------|-2-2-2-2-2-2-2-2-2--4-----------12\--|
D|-------------------------------------|-2-2-2-2-2-2-2-2-2--4-----------12\--|
  g2                                     | dist               |pausa|



.REFRAO
e|-------------------------------------|-------------------------------------|
b|-------------------------------------|-------------------------------------|
g|-4------4----4-4---------------------|---7----7----7--7---4-----4--4----4--|
d|-4------4----4-4---5------5----5-5---|---7----7----7--7---2-----2--2----2--|
a|-2------2----2-2---5------5----5-5---|---0----0----0--0---2-----2--2----2--|
D|-------------------5------5----5-5---|---0----0----0--0---2-----2--2----2--|
  g1 - dist


e|-------------------------------------|-------------------------------------|
b|-------------------------------------|-------------------------------------|
g|-4------4----4-4---7------7----7-7---|---7----7----7--7--9--7-7-7/9-9/12-12|
d|-4------4----4-4---5------5----5-5---|---7----7----7--7--9-----------------|
a|-2------2----2-2---5------5----5-5---|---5----5----5--5--7--5-5-5/7-7/10-10|
D|-------------------5------5----5-5---|-------------------------------------|
  g2 - dist



.
e|-------------------------------------|-------------------------------------|
b|-------------------------------------|-------------------------------------|
g|-4------4----4-4---------------------|---7----7----7--7---4-----4--4----4--|
d|-4------4----4-4---5------5----5-5---|---7----7----7--7---2-----2--2----2--|
a|-2------2----2-2---5------5----5-5---|---0----0----0--0---2-----2--2----2--|
D|-------------------5------5----5-5---|---0----0----0--0---2-----2--2----2--|
  g1


e|-------------------------------------|-------------------------------------|
b|-------------------------------------|-------------------------------------|
g|-4------4----4-4---7------7----7--7--|---7-------7--7------9----9--9-------|
d|-4------4----4-4---5------5----5--5--|---7-------7--7------9----9--9-------|
a|-2------2----2-2---5------5----5--5--|---0-------0--5------7----7--7-7-\---|
D|-------------------5------5----5--5--|---0-------0--0----------------------|
  g2



.PONTE
e|-------------------------------------|-------------------------------------|
b|-------------------------------------|-------------------------------------|
g|-------------------------------------|-------------------------------------|
d|-5-----5----5-------4-----4---4---4--|-5-----5----5--5-5--4-----4---4---4--|
a|-5-----5----5--5-5--4-----4---4---4--|-5-----5----5--5-5--4-----4---4---4--|
D|-5-----5----5--5-5--4-----4---4---4--|-5-----5----5--5-5--4-----4---4---4--|
  g1 - dist


e|-----------5------------------4------|-----------5-------------------------|
b|-------8-------8---------7--------7--|-------8-------8----------7--7-5-5h7-|
g|-7------------------6----------------|-7------------------6----------------|
d|-------------------------------------|-------------------------------------|
a|-------------------------------------|-------------------------------------|
D|-------------------------------------|-------------------------------------|
  g2 - dist + chorus



.
e|-------------------------------------|-------------------------------------|
b|-------------------------------------|-------------------------------------|
g|-------------------------------------|-------------------------------------|
d|-5-----5----5-------4-----4---4---4--|-5-----5----5--5-5--4-----4----4-----|
a|-5-----5----5--5-5--4-----4---4---4--|-5-----5----5--5-5--4-----4----4--0--|
D|-5-----5----5--5-5--4-----4---4---4--|-5-----5----5--5-5--4-----4----4--0--|
  g1


e|-----------5------------------4------|-----------5-------------------------|
b|-------8-------8---------7--------7--|-------8-------8---------------------|
g|-7------------------6----------------|-7-----------------------------------|
d|-------------------------------------|--------------------4-x-x-4-x-x-4----|
a|-------------------------------------|--------------------4-x-x-4-x-x-4-0--|
D|-------------------------------------|--------------------4-x-x-4-x-x-4-0--|
  g2



.REFRAO
e|-------------------------------------|-------------------------------------|
b|-------------------------------------|-------------------------------------|
g|-4------4----4-4---------------------|---7----7----7--7---4-----4--4----4--|
d|-4------4----4-4---5------5----5-5---|---7----7----7--7---2-----2--2----2--|
a|-2------2----2-2---5------5----5-5---|---0----0----0--0---2-----2--2----2--|
D|-------------------5------5----5-5---|---0----0----0--0---2-----2--2----2--|
  g1 - dist


e|-------------------------------------|-------------------------------------|
b|-------------------------------------|-------------------------------------|
g|-4------4----4-4---7------7----7-7---|---7----7----7--7--9--7-7-7/9-9/12-12|
d|-4------4----4-4---5------5----5-5---|---7----7----7--7--9-----------------|
a|-2------2----2-2---5------5----5-5---|---5----5----5--5--7--5-5-5/7-7/10-10|
D|-------------------5------5----5-5---|-------------------------------------|
  g2 - dist


.
e|-------------------------------------|-------------------------------------|
b|-------------------------------------|-------------------------------------|
g|-4---4/6--7--7/9---9-------11--------|---11/12---11--9--7--7/9--7--6-\-----|
d|-------------------------------------|-------------------------------------|
a|-2---2/4--5--5/7---7-------9---------|---9/-10---9---7--5--5/7--5--4-\-----|
D|-------------------------------------|-------------------------------------|
  g1


e|-------------------------------------|-------------------------------------|
b|-------------------------------------|--------------------------5--5-------|
g|-4------4----4-4---7------7----7--7--|---7-------7--7------4----4--4-------|
d|-4------4----4-4---5------5----5--5--|---7-------7--7------2----2--2-------|
a|-2------2----2-2---5------5----5--5--|---0-------0--5------2----2--2-7-\---|
D|-------------------5------5----5--5--|---0-------0--0------2----2--2-------|
  g2



.SOLO
e|---------------------------------------------------------------------------|
b|-15p12----15p12----15p12----15p12----15p12----15p12----15p12----15p12------|
g|-------14-------14-------14-------14-------14-------14-------14-------14---|
d|---------------------------------------------------------------------------|
a|---------------------------------------------------------------------------|
D|---------------------------------------------------------------------------|
  g2 - dist

e|---------------------------------------------------------------------------|
b|-15b17----r15---12---------------------------------------------------------|
g|---------------------14b16---12--------12--12h14---\------------7--x--7h9~-|
d|----------------------------------14------------------------/9-------------|
a|---------------------------------------------------------------------------|
D|---------------------------------------------------------------------------|
  g2

e|--------------------------------------------------------------12-----------|
b|----------------------------------------------10--12--13--12--15b17--------|
g|-----------------------------------9--11--12-------------------------------|
d|------------------------9--10--12------------------------------------------|
a|-------------9--10--12-----------------------------------------------------|
D|--8--10--12----------------------------------------------------------------|
  g2

e|-12-----------------------|------------------------------------------------|
b|-15b17--15b17--15b17--r15-|------------------------------------------------|
g|--------------------------|-14-12----12~-14b16-r14p12----14-12----12h14----|
d|--------------------------|-14-12-14------------------14-14-12-14-------14~|
a|--------------------------|------------------------------------------------|
D|--------------------------|------------------------------------------------|
  g2

e|-------------------------------------|-------------------------------------|
b|-------------------------------------|-------------------------------------|
g|-------------------------------------|-------------------------------------|
d|-2-----------------------------------|-------------------------------------|
a|-2-----------------------------------|-------------------------------------|
D|-2-----------------------------------|-------------------------------------|
  g2

Acordes:
B B/G B/E B/F#
B G D E
G F#
00:00 / 00:00
Outros vídeos desta música
Repetir
Outros vídeos desta música
635 exibições
    • ½ Tom
    • A
    • Bb
    • B
    • C
    • Db
    • D
    • Eb
    • E
    • F
    • F#
    • G
    • Ab
  • Adicionar à lista

Afinação da cifra

Afinador online

    0 comentários

    Ver todos os comentários

    Entre para o Cifra Club PRO

    Tenha acesso a benefícios exclusivos no App e no Site

    • Chega de anúncios

    • Mais recursos no app do Afinador

    • Atendimento Prioritário

    • Aumente seu limite de lista

    • Ajude a produzir mais conteúdo

    00:00 / 00:00

    Cifra Club Pro

    Aproveite o Cifra Club com benefícios exclusivos e sem anúncios
    Cifra Club Pro
    Aproveite o Cifra Club com benefícios exclusivos e sem anúncios
    OK